» » »

Lamb Of God, Black Label Tabs (ver.1)

Artists:  A B C D E F G H I J K L M N O P Q R S T U V W X Y Z # 

Black Label Tabs (ver.1)

Lamb Of God Tabs
 Rating:
4/5 (4 votes)
Black Label lessons Tabs too difficult? Try these video lessons and learn fast
1
                Lamb Of God
U.S.A.

Intro 1                                
   6x
E||---------------------------|---------------------------||
B||---------------------------|---------------------------||
G||*--------------------------|--------------------------*||
D||*--------------------------|--------------------------*||
A||---------------------------|---------------------------||
D||---0--0--0--0--1--0--0--3--|--0--4--0--3--0--0--1--0---||


Intro 1a                                              
           
--------------------------|------------------------------|
--------------------------|------------------------------|
--------------------------|------------------------------|
--------------------------|------------------------------|
--------------------------|--------------0-0-0-0-0-0-0-0-|
--0--0--0--0--1--0--0--3--|--0--4--0--4--0-0-0-0-0-0-0-0-|


Intro 2 (both guitars)                                
 3x
|---------------------------|---------------------------||
|---------------------------|---------------------------||
|*--------------------------|--------------------------*||
|*--------------------------|--------------------------*||
|---0--0--0--0--1--0--0--3--|--0--4--0--3--0--0--1--0---||
|---0--0--0--0--1--0--0--3--|--0--4--0--3--0--0--1--0---||


Verse                                                 
     
---------------------------|--------------------------|
---------------------------|--------------------------|
*--------------------------|--------------------------|
*--------------------------|--------------------7--8--|
---0--0--0--0--1--0--0--3--|--0--4--0--3--0--0--5--6--|
---0--0--0--0--1--0--0--3--|--0--4--0--3--0--0--------|


                                                     
3x
--------------------------|---------------------------||
--------------------------|---------------------------||
--------------------------|--------------------------*||
--------------------------|--------------------------*||
--0--0--0--0--1--0--0--3--|--0--4--0--3--0--0--1--0---||
--0--0--0--0--1--0--0--3--|--0--4--0--3--0--0--1--0---||


Bridge                x2                              
     
----------------------||-----------------------------|
----------------------||-----------------------------|
*--------------------*||--------------11/-12/-11-----|
*--------------------*||-----------------------------|
----------------------||--0--0--0--0--9-/-10/-9---0--|
---4~-------4~--------||--0--0--0--0--------------0--|
   /\/\/\/\/\/\
I'm not sure about this part.
                                                      
   
---------------------------|-----------------------------|
---------------------------|-----------------------------|
-----9/-10/-9--------------|--------------11/-12/-11-----|
---------------------------|-----------------------------|
--0--7/-8/--7--0--4--3--1--|--0--0--0--0--9-/-10/-9---0--|
--0------------0--4--3--1--|--0--0--0--0--------------0--|


                                                      
   
---------------------------|-----------------------------|
---------------------------|-----------------------------|
-----9/-10/-9--------------|--------------11/-12/-11-----|
---------------------------|-----------------------------|
--0--7/-8/--7--0--3--1--0--|--0--0--0--0--9-/-10/-9---0--|
--0------------0--3--1--0--|--0--0--0--0--------------0--|


                                                      
   
---------------------------|-----------------------------|
---------------------------|-----------------------------|
-----9/-10/-9--------------|--------------11/-12/-11-----|
---------------------------|-----------------------------|
--0--7/-8/--7--0--4--3--1--|--0--0--0--0--9-/-10/-9---0--|
--0------------0--4--3--1--|--0--0--0--0--------------0--|


                           
--------------------------|
--------------------------|
--------------------------|
--------------------------|
--0--4--3--1--0--3--1--0--|
--0--4--3--1--0--3--1--0--|


                                     7x
|------------------------------------||
|------------------------------------||
|*----------------------------------*||
|*----------------------------------*||
|------------------------------------||
|---0-0-0-x-0-0-0-x-0-0-0-x-0-0-0-x--||


                           3x                         
 3x
---------------------------||---------------------------||
---------------------------||---------------------------||
*-------------------------*||*-------------------------*||
*-------------------------*||*-------------------------*||
---------------------------||---0----0----0----0-0-0-0--||
---0----0----0----0-0-0-0--||---0----0----0----0-0-0-0--||


                              3x                     
------------------------------||--------------------|
------------------------------||--------------------|
*----------------------------*||*-------------------|
*----------------------------*||*-------------------|
---0-0-0--0--0--0-0-0--0--0---||---0---------------------------------||---0----0----0----6----|
------------------||---0----0----0---------|
                        PM   PM   PM   H

                                                
----------------------|-----------------------||
----------------------|-----------------------||
----------------------|----------------------*||
--6----6--------------|------------4----4----*||
--6----6----0----6----|--6----0----4----4-----||
------------0----6----|--6----0---------------||
  H    H    PM   H       H    PM   H    H

                                               
-----------------------|----------------------|
-----------------------|----------------------|
*----------------------|----------------------|
*-----------------8----|--8----8--------------|
---0----0----0----6----|--6----6----0----6----|
---0----0----0---------|------------0----6----|
   PM   PM   PM                     PM

                         
-----------------------||
-----------------------||
----------------------*||
------------6----6----*||
--6---------4----4-----||
--6----0---------------||
       PM
            
Submit corrections

comments powered by Disqus
↑ Back to top | Lamb Of God Tabs for Black Label. Lyrics for acoustic guitar and electric guitar. 1 Tablatures and chords are parodies/interpretations of the original songs. You may use it for private study, scholarship, research or language learning purposes only