» » »

Lamb Of God, A Warning Bass tabs (ver.1)

Artists:  A B C D E F G H I J K L M N O P Q R S T U V W X Y Z # 

A Warning Bass tabs (ver.1)

Lamb Of God Tabs
 Rating:
4.3/5 (6 votes)
A Warning lessons Tabs too difficult? Try these video lessons and learn fast
                Drop D tuning

Intro            8x
G-------------------|
D-------------------|
A-------------------|
D-8-000000-6-000000-|

Verse          8x
G-----------------|
D-----------------|
A-----------------|
D-1-00000-1-00000-|

                                     2x
G---------------------------------------|
D---------------------------------------|
A-------------1-------------------------|
D-3-2-2-2-2-2---2-3-2-2-2-2-2h3-2h5-2h3-|

                         4x
G--------------------------|
D--------------------------|
A--------------------------|
D-1-0-0-0-0-0-1-0-0-0-0-0--|

                         4x
G--------------------------|
D--------------------------|
A--------------------------|
D-3-2-2-2-2-2-3-2-2-2-2-2--|

                         2x
G--------------------------|
D--------------------------|
A--------------------------|
D-1-0-0-0-0-0-1-0-0-0-0-0--|

Bridge
G-----------|
D-----------|
A-----------|
D-0--0--0---|

               4x
G-----------------|
D-----------------|   Trill-pick this part
A-----------------|
D-4-1-4-0-3-2-5-6-|

                     2x
G-----------------------|
D-----------------------|
A-----------------------|
D-0-0-1-0-1-0-0-1-0-1-0-|

Outro 8x
G----------------------------------------------|
D----------------------------------------------|
A----------------------------------------------|
D-1-0---0-1-0---0-1-0---1-0---0-1-0---1-0-1-0--|
            
Submit corrections

comments powered by Disqus
↑ Back to top | Lamb Of God Bass for A Warning. Lyrics for acoustic guitar and electric guitar. Tablatures and chords are parodies/interpretations of the original songs. You may use it for private study, scholarship, research or language learning purposes only