» » »

Ashes Of The Wake Tabs (ver.5)

Artists:  A B C D E F G H I J K L M N O P Q R S T U V W X Y Z # 

Ashes Of The Wake Tabs (ver.5)

Lamb Of God
Rating:
0/5 (0 votes)

Hard to play? Try these video lessons and learn fast.
                Lamb Of God
Ashes Of The Wake

Drop D
D-A-D-G-B-E

Solo is being written most likely tomoro if i have nothing to do... it will be marked as
Of The Wake Solo

Right o... I was sick of all the tabs being completely wrong in every single way so i
a tab that is as close as i could get to it by ear from the song... hope its right, sorry
its not, good luck. And just by the way im not entirely sure what the parts of the song 
called...

Intro
|--------------------------------------------------|
|--------------------------------------------------|
|--------------------------------------------------|
|------------2-2h3p2-------------------------------| X 1
|--------4h5---------5-------5-----4-----3------1-1|
|--000-0---------------0-000---8-7---7-6---5-0--1-1|
   xxx x               x xxx

|-----------------------------------------------------------|
|-----------------------------------------------------------|
|----------------------------------------10h9---------------|
|------------2-2h3p2--------------------------11-11h12p11---| X 1
|--------4h5---------5-------5-----4----------------------13|
|--000-0---------------0-000---8-7---7-6--------------------|
   xxx x               x xxx

|--------------------------------------------------|
|--------------------------------------------------|
|--------------------------------------------------|
|------------2-2h3p2-------------------------------| X 3
|--------4h5---------5-------5-----4-----3------1-1|
|--000-0---------------0-000---8-7---7-6---5-0--1-1|
   xxx x               x xxx

|-----------------------------------------------------------|
|-----------------------------------------------------------|
|----------------------------------------10h9---------------|
|------------2-2h3p2--------------------------11-11h12p11---| X 1
|--------4h5---------5-------5-----4----------------------13|
|--000-0---------------0-000---8-7---7-6--------------------|
   xxx x               x xxx

|--------------------------------------------------|
|--------------------------------------------------|
|--------------------------------------------------|
|------------2-2h3p2-------------------------------| X 1
|--------4h5---------5-------5-----4-----3------1-1|
|--000-0---------------0-000---8-7---7-6---5-0--1-1|
   xxx x               x xxx

|----------------------------------------------------------------|
|----------------------------------------------------------------|
|----------------------------10h9--------------------------------|
|------------2-2h3p2--------------11-11h12p11--------------------| X 1
|--------4h5---------5------------------------13--10h9-----------|
|--000-0---------------0-000---------------------------11-12-11-7|
   xxx x               x xxx

Interlude? The muting part was quite hard to distinguish...

|-----------------------------------------------------------------------|
|-----------------------------------------------------------------------|
|-----------------------------------------------------------------------|
|-----------------------------------------------------------------------|X 1
|--5h6p5----------------------------------------8-7-4-------------------|
|-------0-0-0-0-0-00-0-0-0-0-0-00-0-0-0-0-0-7h8-------------------------|
        x x x x x xx x x x x x xx x x x x x

|---------------------------------------------|
|---------------------------------------------|
|---------------------------------------------|
|---------------------------------------------| X 1
|--5h6p5-----------------------3-3-----1-1----|
|-------0-0-0-0-0-00-0-0-0-0-0-3-3-0-0-1-1----|
        x x x x x xx x x x x x     x x

|-----------------------------------------------------------------------|
|-----------------------------------------------------------------------|
|-----------------------------------------------------------------------|
|-----------------------------------------------------------------------|X 1
|--5h6p5----------------------------------------8-7-4-------------------|
|-------0-0-0-0-0-00-0-0-0-0-0-00-0-0-0-0-0-7h8-------------------------|
        x x x x x xx x x x x x xx x x x x x

|---------------------------------------------|
|---------------------------------------------|
|---------------------------------------------|
|---------------------------------------------| X 1
|--5h6p5-----------------------2-2-----3-3----|
|-------0-0-0-0-0-00-0-0-0-0-0-2-2-0-0-3-3----|
        x x x x x xx x x x x x     x x

|-----------------------------------------------------------------------|
|-----------------------------------------------------------------------|
|-----------------------------------------------------------------------|
|-----------------------------------------------------------------------|X 1
|--5h6p5----------------------------------------8-7-4-------------------|
|-------0-0-0-0-0-00-0-0-0-0-0-00-0-0-0-0-0-7h8-------------------------|
        x x x x x xx x x x x x xx x x x x x

|---------------------------------------------|
|---------------------------------------------|
|---------------------------------------------|
|---------------------------------------------| X 1
|--5h6p5-----------------------3-3-----1-1----|
|-------0-0-0-0-0-00-0-0-0-0-0-3-3-0-0-1-1----|
        x x x x x xx x x x x x     x x

|-----------------------------------------------------------------------|
|-----------------------------------------------------------------------|
|-----------------------------------------------------------------------|
|-----------------------------------------------------------------------|X 1
|--5h6p5----------------------------------------8-7-4-------------------|
|-------0-0-0-0-0-00-0-0-0-0-0-00-0-0-0-0-0-7h8-------------------------|
        x x x x x xx x x x x x xx x x x x x

|----------------------------------------------|
|----------------------------------------------|
|----------------------------------------------|
|----------------------------------------------| X 1
|--5h6p5-----------------------2-2-----3-3-----|
|-------0-0-0-0-0-00-0-0-0-0-0-2-2-0-0-3-3-0---|
        x x x x x xx x x x x x     x x

Think this is called a bridge

|----------------------------------------------|
|----------------------------------------------|
|----------------------------------------------|
|----------------------------------------------| X 1
|-----------------1----1-----------------------|
|--6666-5555-3333---0--1-----------------------|
   xxxx xxxx xxxx B x

And this is the... Next... Riff...?

|----------------------------------------------------------------|
|--------------------------------------------3-3--3-3------------|
|--------------------------------------------6-6--7-7--7-7--7-7--|
|--0-----------------------------------------0-0--0-0--6-6--3-3--| X 1
|--0----------------------------------2/1-2------------6-6--3-3--|
|----00-00-00-0-00-00-00-0-00-00-00-0-2/1-2------------6-6--3-3--|
     xx xx xx x xx xx xx x xx xx xx x

|----------------------------------------------------------------|
|--------------------------------------------3-3--3-3------------|
|--------------------------------------------6-6--7-7--7-7--7-7--|
|--0-----------------------------------------0-0--0-0--6-6--3-3--| X 1
|--0----------------------------------2/1-2------------6-6--3-3--|
|----00-00-00-0-00-00-00-0-00-00-00-0-2/1-2------------6-6--3-3--|
     xx xx xx x xx xx xx x xx xx xx x

|---------------------------------------------------------------------|
|--------------------------------------------------3-3--3-3-----------|
|--------------------------------------------------6-6--7-7--7-7--7-7-|
|--------0-----------------------------------------0-0--0-0--6-6--3-3-| X 1
|----1---0----------------------------------2/1-2------------6-6--3-3-|
|--0-1-0---00-00-00-0-00-00-00-0-00-00-00-0-2/1-2------------6-6--3-3-|
   x   x   xx xx xx x xx xx xx x xx xx xx x

|----------------------------------------------------------------|
|--------------------------------------------3-3--3-3------------|
|--------------------------------------------6-6--7-7--7-7--7-7--|
|--0-----------------------------------------0-0--0-0--6-6--3-3--| X 1
|--0----------------------------------2/1-2------------6-6--3-3--|
|----00-00-00-0-00-00-00-0-00-00-00-0-2/1-2------------6-6--3-3--|
     xx xx xx x xx xx xx x xx xx xx x

Drum Interlude....

|~~~~~~~~~~| <--- Hidden By Drum Interlude
|--------------------------------------------|
|--------------------------------------------|
|--------------------------------------------|
|-0-1/4--------------------------------------|
|-0-1/4--------------------------------------|
|-0-1/4-9/8--2222-2-8--15---2222-2-7-14------|
  x xxx B B         B   B          B  B
        x x

|--------------------------------------------|
|--------------------------------------------|
|--------------------------------------------|
|-----------------------3---1----------------|
|-----------------------1---1----------------|
|---3333-3-8-15-1111-1----0------------------|
           B  B

After Solo

|-----------------------------------------------------------|
|------12h11------------------------------------------------|
|-----------------------------------------------------------|
|-----------13-12h13p12-------12----------------------------|
|-----------------------------------------------------------|
|-0-000---------------------7----7-6-5-3--------------------|
                     B      x    x x x x

Yer it's not finished but its late and im going to bed I'll finish it tomoro... The last
"After Solo" is probly wrong for now.

Key

B - Bend
x - Mute
            
Hard to play? Try these video lessons and learn fast. | Correct




comments powered by Disqus
↑ Back to top | Tablatures and chords are parodies/interpretations of the original songs. You may use it for private study, scholarship, research or language learning purposes only