» » »

Lamb Of God, Ashes Of The Wake Tabs (ver.4)

Artists:  A B C D E F G H I J K L M N O P Q R S T U V W X Y Z # 

Ashes Of The Wake Tabs (ver.4)

Lamb Of God Tabs
 Rating:
3.5/5 (8 votes)
Ashes Of The Wake lessons Tabs too difficult? Try these video lessons and learn fast
                Band: Lamb of God

Tuning-Drop-D DADGBE

Legend:
b-bend 
*-pinch harmonics
.-palm mute
x-muted note
h-hammer on
p-pull of 

This is the easier versoin.  Its sounds exactly like it though.
        
e|---------------------------------------------------|
B|---------------------------------------------------|
G|---------------------------------------------------|
D|-------------------------1-----0------------8--8---|
A|-------4-5-7-8-7-5---------3-2---1-0--------6--6---|
D|-0-000-------------0-000-------------0-000---------|
   . ...             . ... . . . . . . . ...

|--------------------------------------1-0---------------|
|------------------------------------------2-2h3p2-------|
|--------------------------------------------------3-----|
|-------------------------1-----0------------------------|
|-------4-5-7-8-7-5---------3-2---2-1--------------------|
|-0-000-------------0-000--------------------------------|
  . ...             . ... . . . . . . 

|---------------------------------------------------|
|---------------------------------------------------|
|---------------------------------------------------|
|-------------------------1-----0------------8--8---|
|-------4-5-7-8-7-5---------3-2---1-0--------6--6---|
|-0-000-------------0-000-------------0-000---------|
  . ...             . ... . . . . . . . ...

|---------------------------------------------------|
|---------------------------------------------------|
|---------------------------------------------------|
|---------------------------------------------------|
|-------4-5-7-8-7-5-------------------------1--1----|
|-0-000-------------0-000-8-5-4-7-4-3-0-000-1--1----|
  . ...             . ... . . . . . . . ...

|---------------------------------------------------|
|---------------------------------------------------|
|---------------------------------------------------|
|-------------------------1-----0------------8--8---|
|-------4-5-7-8-7-5---------3-2---1-0--------6--6---|
|-0-000-------------0-000-------------0-000---------|
  . ...             . ... . . . . . . . ...

|--------------------------------------1-0---------------|
|------------------------------------------2-2h3p2-------|
|--------------------------------------------------3-----|
|-------------------------1-----0------------------------|
|-------4-5-7-8-7-5---------3-2---2-1--------------------|
|-0-000-------------0-000--------------------------------|
  . ...             . ... . . . . . . 

|---------------------------------------------------|
|---------------------------------------------------|
|---------------------------------------------------|
|-------------------------1-----0------------8--8---|
|-------4-5-7-8-7-5---------3-2---1-0--------6--6---|
|-0-000-------------0-000-------------0-000---------|
  . ...             . ... . . . . . . . ...

|--------------------------1-0-------------------------------|
|------------------------------2-2h3p2-----------------------|
|--------------------------------------3---------------------|
|----------------------------------------5-4-1---------0h1p0-|
|-------4-5-7-8-7-5------------------------------------------|
|-0-000-------------0-000----------------------3b(4)-0-------|
  . ...             . ... 

|---------------------------------------------------|
|*--------------------------------------------------|
|---------------------------------------------------|
|---------------------------------------3-2---0h1p0-|
|*----------------------------------1-0-----4-------|
|-0-0-0-0-0-000-0-0-0-0-000-0-0-0-0-----------------|
  . . . . . ... . . . . ... . . . .

|------------------------------------------------|
|------------------------------------------------|
|------------------------------------------------|
|----------------------------------------0h1p0---|
|-----------------------6--6-----3--3------------|
|-0-0-0-0-0-000-0-0-0-0-6--6-0-0-3--3--0---------|
  . . . . . ... . . . .      . .       .

|---------------------------------------------------|
|---------------------------------------------------|
|---------------------------------------------------|
|---------------------------------------3-2---0h1p0-|
|-----------------------------------1-0-----4-------|
|-0-0-0-0-0-000-0-0-0-0-000-0-0-0-0-----------------|
  . . . . . ... . . . . ... . . . .

|-------------------------------------------------|
|------------------------------------------------*|
|-------------------------------------------------|
|----------------------------------------0h1p0----|
|-----------------------3--3-----4--4------------*|
|-0-0-0-0-0-000-0-0-0-0-3--3-0-0-4--4--0----------|
  . . . . . ... . . . .      . .       .

|-----------------------|
|-----------------------|
|-----------------------|After this part they play
|-----------------------|some weird chords that im
|----------------3--5---|figuring out so ill add it
|-7777666633336--3--5---|soon. I also almost have the 
                         the solos tabbed.  Enjoy.

                          
            
Submit corrections

comments powered by Disqus
↑ Back to top | Lamb Of God Tabs for Ashes Of The Wake. Lyrics for acoustic guitar and electric guitar. Tablatures and chords are parodies/interpretations of the original songs. You may use it for private study, scholarship, research or language learning purposes only