» » »

Lamb Of God, Another Nail For Your Coffin Tabs (ver.1)

Artists:  A B C D E F G H I J K L M N O P Q R S T U V W X Y Z # 

Another Nail For Your Coffin Tabs (ver.1)

Lamb Of God Tabs
 Rating:
3.3/5 (14 votes)
Another Nail For Your Coffin lessons Tabs too difficult? Try these video lessons and learn fast
1
                -------------------------------------------------------------------------------
-------------------------------------------------------------------------------

Gtr 1: (D A D G B e)
Gtr 2: (D A D G B e)


Both Guitars: Intro riff
e|---------------------------------------------------------------------------|
B|---------------------------------------------------------------------------|
G|---------------------------------------------------------------------------|
D|---------------3---------------------3-------------------------------------|
A|---------------3-2-2-2---------------3-2-2---------------------------------|
D|-2-2-2-2-2-2-2-3-2-2-2-2-2-2-2-2-2-2-3-2-2-2-2-2-2-2-2-2-55-33-2\1/2-------|
   . . . . . . .   . . . . . . . . . .   . . . . . . . . . .. ..

Both Guitars: Riff 2
e|---------------------------------------------------------------------------|
B|-----------------------------------O---------------------------------------|
G|---------------------------------------------------------------------------|
D|-----------------------------------O---------------------------------------|
A|-000000000-1-000000000-5-3-1-0---0-----------------------------------------|
D|-------------------------------5-------------------------------------------|
   ......... . ......... . . . . . .

Riff 3
e|---------------------------------------------------------------------------|
B|---------------------------------------------------------------------------|
G|---------------------------------------------------------------------------|
D|---------------------------------------------------------------------------|
A|---------------------------------------------------------------------------|
D|-2-2-2-2-3bp0--------------------------------------------------------------|
   . . . .
Figure out the 2 strumming pattern on your own.
For that bend, bend until your finger slides off to get that sound. Then the next riff 
off with: A|-3^---|
                           D|---3^-|
Riff 4
e|---------------------------------------------------------------------------|
B|---------------------------------------------------------------------------|
G|---------------------------------------------------------------------------|
D|---------------------------------------------------------------------------|
A|------3^-------------------------------------------------------------------|
D|-000-----3^----------------------------------------------------------------|
   ...

You can figure out the open d pattern for your self.

Riff 5
e|---------------------------------------------------------------------------|
B|---------------------------------------------------------------------------|
G|---------------------------------------------------------------------------|
D|---------------------------------------------------------------------------|
A|---------------------------------------------------------------------------|
D|-2-2-2-2--5-3-2-1-2-2-2-2--------------------------------------------------|
   . . . .  . . . . . . . .
Pretty much figure out every pattern in this song for yourself.
Super annoying riff.I recommend down picks only.

e|---------------------------------------------------------------------------|
B|-16-16-16-16-16-16-16--15-15-15-15-15-15-----------------------------------|
G|-19-20-19-20-19-20-19--18-19-18-19-18-19-----------------------------------|
D|---------------------------------------------------------------------------|
A|---------------------------------------------------------------------------|
D|---------------------------------------------------------------------------|
Repeat until satisfied.

Gtr 1
e|---------------------------------------------------------------------------|
B|---------------------------------------------------------------------------|
G|---------------------------------------------------------------------------|
D|-------10--10-h-12--------10-10h12p10--------------------------------------|
A|-13-13--------------13-13-------------13---10-10h12-8-10-7-8h10p7--5-7--3--|
D|-----------------------------------------0---------------------------------|
   .   .              .  .
Play that until the end.

Gtr. 2
e|---------------------------------------------------------------------------|
B|---------------------------------------------------------------------------|
G|---------------------------------------------------------------------------|
D|3----------------------------------------0---------------------------------|
A|1----------------------------------------0---------------------------------|
D|-----------------------------------------0---------------------------------|

The Rhythm changes sometimes to this:
e|---------------------------------------------------------------------------|
B|---------------------------------------------------------------------------|
G|---------------------------------------------------------------------------|
D|-3---------------------------------------5----------------------3----------|
A|-1---------------------------------------5----------------------1----------|
D|-----------------------------------------5------3-3-3-3-1-1-1-1------------|
                                                  . . . . . . . .
When that happens keep playing the a melody on the high d string. Do not play the a 
stuff.
| /  slide up
| \  slide down
| h  hammer-on
| p  pull-off
| ~  vibrato
| ^  harmonic
| x  Mute note
===============================================================================
            
Submit corrections

comments powered by Disqus
↑ Back to top | Lamb Of God Tabs for Another Nail For Your Coffin. Lyrics for acoustic guitar and electric guitar. 1 Tablatures and chords are parodies/interpretations of the original songs. You may use it for private study, scholarship, research or language learning purposes only