» » »

Lambchop, Soaky In The Pooper Tabs (ver.1)

Artists:  A B C D E F G H I J K L M N O P Q R S T U V W X Y Z # 

Soaky In The Pooper Tabs (ver.1)

Lambchop Tabs
Rating:
0/5 (0 votes)
Soaky In The Pooper lessons Tabs too difficult? Try these video lessons and learn fast
                - - - - Soaky in the pooper--------------------------------------------------------------

Standard tuning

Civilization' (Retrospective Collection).

Recommend you buy at least one of these if you haven't already!


This song is basically made up of one long and repeating sequence of rolls, that should
played fingerstyle with thumb and fingers 1, 2 and 3.

It has a long instrumental intro before the lyrics kick in.

INTRO

e|-------5-------5-------5-------5-------5-------5-------5-------5---|
B|-----3-------3-------3-------3-------3-------3-------3-------3-----|
G|---4-------4-------4-------4-------4-------4-------4-------4-------|
D|-5-------5-------4-------4-------0-------0-------4-------4---------|
A|-------------------------------------------------------------------|
E|-------------------------------------------------------------------|

e|-------5-------5-------5-------5-------5-------5-------5-------5---|
B|-----3-------3-------3-------3-------3-------3-------3-------3-----|
G|---4-------4-------4-------4-------4-------4-------4-------4-------|
D|-5-------5-------4-------4-------0-------0-------4-------4---------|
A|-------------------------------------------------------------------|
E|-------------------------------------------------------------------|

e|-------0-------0-------0-------0-------0-------0-------0-------0---|
B|-----1-------1-------1-------1-------1-------1-------3-------3-----|
G|---0-------0-------0-------0-------0-------0-------0-------0-------|
D|-2-------2-------2-------2-------2-------2-------4-------4---------|
A|-------------------------------------------------------------------|
E|-------------------------------------------------------------------|

e|-------5-------5-------5-------5-------5-------5-------5-------5---|
B|-----3-------3-------3-------3-------3-------3-------3-------3-----|
G|---4-------4-------4-------4-------4-------4-------4-------4-------|
D|-5-------5-------4-------4-------0-------0-------4-------4---------|
A|-------------------------------------------------------------------|
E|-------------------------------------------------------------------|

e|-------0-------0-------0-------0-------0-------0-------0-------0---|
B|-----1-------1-------1-------1-------1-------1-------1-------1-----|
G|---0-------0-------0-------0-------0-------0-------0-------0-------|
D|-2-------2-------2-------2---------------2---------------2---------|
A|---------------------------------2---------------2-----------------|
E|-------------------------------------------------------------------|

e|-------0-------0-------0-------0-------3-------3p0-----0-------0---|
B|-----1-------1-------1-------1-------1-------1-------1-------1-----|
G|---0-------0-------0-------0-------0-------0-------0-------0-------|
D|---------2-------2-------2-------0-------0-------0-------0---------|
A|-0-----------------------------------------------------------------|
E|-------------------------------------------------------------------|

e|-------3-------0-------0-------0-|
B|-----1-------1-------1-------3---|
G|---0-------0-------0-------0-----|
D|-0-------0-------2-------4-------|
A|---------------------------------|
E|---------------------------------|

VERSE 1

e|-------5-------5-------5-------5-------5-------5-------5-------5---|
B|-----3-------3-------3-------3-------3-------3-------3-------3-----|
G|---4-------4-------4-------4-------4-------4-------4-------4-------|
D|-5-------5-------4-------4-------0-------0-------4-------4---------|
A|-------------------------------------------------------------------|
E|-------------------------------------------------------------------|

        Soaky in the pooper

e|-------5-------5-------5-------5-------5-------5-------5-------5---|
B|-----3-------3-------3-------3-------3-------3-------3-------3-----|
G|---4-------4-------4-------4-------4-------4-------4-------4-------|
D|-5-------5-------4-------4-------0-------0-------4-------4---------|
A|-------------------------------------------------------------------|
E|-------------------------------------------------------------------|

        Standing in a stupor by the tank                   Ohhhhhhh

e|-------0-------0-------0-------0-------0-------0-------0-------0---|
B|-----1-------1-------1-------1-------1-------1-------3-------3-----|
G|---0-------0-------0-------0-------0-------0-------0-------0-------|
D|-2-------2-------2-------2-------2-------2-------4-------4---------|
A|-------------------------------------------------------------------|
E|-------------------------------------------------------------------|

       Better call the super

e|-------5-------5-------5-------5-------5-------5-------5-------5---|
B|-----3-------3-------3-------3-------3-------3-------3-------3-----|
G|---4-------4-------4-------4-------4-------4-------4-------4-------|
D|-5-------5-------4-------4-------0-------0-------4-------4---------|
A|-------------------------------------------------------------------|
E|-------------------------------------------------------------------|

       As I grip the towel rack for strength               Ohhhhhh

e|-------0-------0-------0-------0-------0-------0-------0-------0---|
B|-----1-------1-------1-------1-------1-------1-------1-------1-----|
G|---0-------0-------0-------0-------0-------0-------0-------0-------|
D|-2-------2-------2-------2---------------2---------------2---------|
A|---------------------------------2---------------2-----------------|
E|-------------------------------------------------------------------|

     Studied all these cracks before,stuff the towel beneath the door

e|-------0-------0-------0-------0-------3-------3p0-----0-------0---|
B|-----1-------1-------1-------1-------1-------1-------1-------1-----|
G|---0-------0-------0-------0-------0-------0-------0-------0-------|
D|---------2-------2-------2-------0-------0-------0-------0---------|
A|-0-----------------------------------------------------------------|
E|-------------------------------------------------------------------|

   Crawling up all upon the floor, and wait for it to pass

e|-------3-------0-------0-------0-|
B|-----1-------1-------1-------3---|
G|---0-------0-------0-------0-----|
D|-0-------0-------2-------4-------|
A|---------------------------------|
E|---------------------------------|

VERSE 2

e|-------5-------5-------5-------5-------5-------5-------5-------5---|
B|-----3-------3-------3-------3-------3-------3-------3-------3-----|
G|---4-------4-------4-------4-------4-------4-------4-------4-------|
D|-5-------5-------4-------4-------0-------0-------4-------4---------|
A|-------------------------------------------------------------------|
E|-------------------------------------------------------------------|

      Hear the faucet dripping

e|-------5-------5-------5-------5-------5-------5-------5-------5---|
B|-----3-------3-------3-------3-------3-------3-------3-------3-----|
G|---4-------4-------4-------4-------4-------4-------4-------4-------|
D|-5-------5-------4-------4-------0-------0-------4-------4---------|
A|-------------------------------------------------------------------|
E|-------------------------------------------------------------------|

      As his brain is slipping into mush                   Ohhhhhh

e|-------0-------0-------0-------0-------0-------0-------0-------0---|
B|-----1-------1-------1-------1-------1-------1-------3-------3-----|
G|---0-------0-------0-------0-------0-------0-------0-------0-------|
D|-2-------2-------2-------2-------2-------2-------4-------4---------|
A|-------------------------------------------------------------------|
E|-------------------------------------------------------------------|

      Man I think he's trippin'

e|-------5-------5-------5-------5-------5-------5-------5-------5---|
B|-----3-------3-------3-------3-------3-------3-------3-------3-----|
G|---4-------4-------4-------4-------4-------4-------4-------4-------|
D|-5-------5-------4-------4-------0-------0-------4-------4---------|
A|-------------------------------------------------------------------|
E|-------------------------------------------------------------------|

       Better pull his head out of the bowl                Mmmmmhh

e|-------0-------0-------0-------0-------0-------0-------0-------0---|
B|-----1-------1-------1-------1-------1-------1-------1-------1-----|
G|---0-------0-------0-------0-------0-------0-------0-------0-------|
D|-2-------2-------2-------2---------------2---------------2---------|
A|---------------------------------2---------------2-----------------|
E|-------------------------------------------------------------------|

     And as the ceiling starts to bleed,he carefully begins to read

e|-------0-------0-------0-------0-------3-------3p0-----0-------0---|
B|-----1-------1-------1-------1-------1-------1-------1-------1-----|
G|---0-------0-------0-------0-------0-------0-------0-------0-------|
D|---------2-------2-------2-------0-------0-------0-------0---------|
A|-0-----------------------------------------------------------------|
E|-------------------------------------------------------------------|

     The label on the toilet seat, it's like a warning of some kind

e|-------3-------0-------0-------0-|
B|-----1-------1-------1-------3---|
G|---0-------0-------0-------0-----|
D|-0-------0-------2-------4-------|
A|---------------------------------|
E|---------------------------------|

INSTRUMENTAL INTERLUDE

e|-------5-------5-------5-------5-------5-------5-------5-------5---|
B|-----3-------3-------3-------3-------3-------3-------3-------3-----|
G|---4-------4-------4-------4-------4-------4-------4-------4-------|
D|-5-------5-------4-------4-------0-------0-------4-------4---------|
A|-------------------------------------------------------------------|
E|-------------------------------------------------------------------|

e|-------5-------5-------5-------5-------5-------5-------5-------5---|
B|-----3-------3-------3-------3-------3-------3-------3-------3-----|
G|---4-------4-------4-------4-------4-------4-------4-------4-------|
D|-5-------5-------4-------4-------0-------0-------4-------4---------|
A|-------------------------------------------------------------------|
E|-------------------------------------------------------------------|

e|-------0-------0-------0-------0-------0-------0-------0-------0---|
B|-----1-------1-------1-------1-------1-------1-------3-------3-----|
G|---0-------0-------0-------0-------0-------0-------0-------0-------|
D|-2-------2-------2-------2-------2-------2-------4-------4---------|
A|-------------------------------------------------------------------|
E|-------------------------------------------------------------------|

e|-------5-------5-------5-------5-------5-------5-------5-------5---|
B|-----3-------3-------3-------3-------3-------3-------3-------3-----|
G|---4-------4-------4-------4-------4-------4-------4-------4-------|
D|-5-------5-------4-------4-------0-------0-------4-------4---------|
A|-------------------------------------------------------------------|
E|-------------------------------------------------------------------|

e|-------0-------0-------0-------0-------0-------0-------0-------0---|
B|-----1-------1-------1-------1-------1-------1-------1-------1-----|
G|---0-------0-------0-------0-------0-------0-------0-------0-------|
D|-2-------2-------2-------2---------------2---------------2---------|
A|---------------------------------2---------------2-----------------|
E|-------------------------------------------------------------------|

e|-------0-------0-------0-------0-------3-------3p0-----0-------0---|
B|-----1-------1-------1-------1-------1-------1-------1-------1-----|
G|---0-------0-------0-------0-------0-------0-------0-------0-------|
D|---------2-------2-------2-------0-------0-------0-------0---------|
A|-0-----------------------------------------------------------------|
E|-------------------------------------------------------------------|

e|-------3-------0-------0-------0-|
B|-----1-------1-------1-------3---|
G|---0-------0-------0-------0-----|
D|-0-------0-------2-------4-------|
A|---------------------------------|
E|---------------------------------|

VERSE 3

e|-------5-------5-------5-------5-------5-------5-------5-------5---|
B|-----3-------3-------3-------3-------3-------3-------3-------3-----|
G|---4-------4-------4-------4-------4-------4-------4-------4-------|
D|-5-------5-------4-------4-------0-------0-------4-------4---------|
A|-------------------------------------------------------------------|
E|-------------------------------------------------------------------|

      And as his face turns bluish

e|-------5-------5-------5-------5-------5-------5-------5-------5---|
B|-----3-------3-------3-------3-------3-------3-------3-------3-----|
G|---4-------4-------4-------4-------4-------4-------4-------4-------|
D|-5-------5-------4-------4-------0-------0-------4-------4---------|
A|-------------------------------------------------------------------|
E|-------------------------------------------------------------------|

      And his eyes roll back into his head                 Ohhhhhh

e|-------0-------0-------0-------0-------0-------0-------0-------0---|
B|-----1-------1-------1-------1-------1-------1-------3-------3-----|
G|---0-------0-------0-------0-------0-------0-------0-------0-------|
D|-2-------2-------2-------2-------2-------2-------4-------4---------|
A|-------------------------------------------------------------------|
E|-------------------------------------------------------------------|

      The funeral was Jewish

e|-------5-------5-------5-------5-------5-------5-------5-------5---|
B|-----3-------3-------3-------3-------3-------3-------3-------3-----|
G|---4-------4-------4-------4-------4-------4-------4-------4-------|
D|-5-------5-------4-------4-------0-------0-------4-------4---------|
A|-------------------------------------------------------------------|
E|-------------------------------------------------------------------|

      All the mourners travelled in one car               Mmmmmhh

e|-------0-------0-------0-------0-------0-------0-------0-------0---|
B|-----1-------1-------1-------1-------1-------1-------1-------1-----|
G|---0-------0-------0-------0-------0-------0-------0-------0-------|
D|-2-------2-------2-------2---------------2---------------2---------|
A|---------------------------------2---------------2-----------------|
E|-------------------------------------------------------------------|

      They remembered he had said, you're never lonely when you're dead

e|-------0-------0-------0-------0-------3-------3p0-----0-------0---|
B|-----1-------1-------1-------1-------1-------1-------1-------1-----|
G|---0-------0-------0-------0-------0-------0-------0-------0-------|
D|---------2-------2-------2-------0-------0-------0-------0---------|
A|-0-----------------------------------------------------------------|
E|-------------------------------------------------------------------|

     And as the final rites were read, the angels start to sing

e|-------3-------0-------0-------0-|
B|-----1-------1-------1-------3---|
G|---0-------0-------0-------0-----|
D|-0-------0-------2-------4-------|
A|---------------------------------|
E|---------------------------------|

OUTRO

e|-------5-------5-------5-------5-------5-------5-------5-------5---|
B|-----3-------3-------3-------3-------3-------3-------3-------3-----|
G|---4-------4-------4-------4-------4-------4-------4-------4-------|
D|-5-------5-------4-------4-------0-------0-------4-------4---------|
A|-------------------------------------------------------------------|
E|-------------------------------------------------------------------|

      Soaky in the pooper

e|-------5-------5-------5-------5-------5-------5-------5-------5---|
B|-----3-------3-------3-------3-------3-------3-------3-------3-----|
G|---4-------4-------4-------4-------4-------4-------4-------4-------|
D|-5-------5-------4-------4-------0-------0-------4-------4---------|
A|-------------------------------------------------------------------|
E|-------------------------------------------------------------------|

     Soaky in the pooper

e|-------5-------5-------5-------5-------5-------5-------5-------5---|
B|-----3-------3-------3-------3-------3-------3-------3-------3-----|
G|---4-------4-------4-------4-------4-------4-------4-------4-------|
D|-5-------5-------4-------4-------0-------0-------4-------4---------|
A|-------------------------------------------------------------------|
E|-------------------------------------------------------------------|

     Sooooooaaaaaaaaaaaaaaaaaaakkkkkkkkkkkkkkkkkyyyyyyyyyyyyyyyyyy

e|-------5-------5-------5-------5-------5-------5-------5-|
B|-----3-------3-------3-------3-------3-------3-------3---|
G|---4-------4-------4-------4-------4-------4-------4-----|
D|-5-------5-------4-------4-------0-------0-------4-------|
A|---------------------------------------------------------|
E|---------------------------------------------------------|

     Sooooooaaaaaaaaaaaaaaaaaaakkkkkkkkkkkkkkkkkyyyyyyyyyyyyyyyyyy

e|-------0-.---------5-.
B|-----3---.------3----.
G|---4-----.---4-------.
D|-4-------.5----------.
A|---------.-----------.
E|---------.-----------.
             SWEEP
            

comments powered by Disqus
↑ Back to top | Lambchop Tabs for Soaky In The Pooper. Lyrics for acoustic guitar and electric guitar. Tablatures and chords are parodies/interpretations of the original songs. You may use it for private study, scholarship, research or language learning purposes only