» » »

Paperback Bible Tabs (ver.1)

Artists:  A B C D E F G H I J K L M N O P Q R S T U V W X Y Z # 

Paperback Bible Tabs (ver.1)

Lambchop
Rating:
0/5 (0 votes)

Tabs too difficult? Try these video lessons and learn fast.
                ----------------------------------------------------------------------------
----------------------------------------------------------------------------

Tuning:ebgDA#F#

ROLL 1

e |----1---1---1---1---1---1---1---1---1---1---1---1---1---1------|
B |---2---2---2---2---2---2---2---2---2---2---2---2---2---2-------|
G |--3---3---3---3---3---3---3---3---3---3---3---3---3---3--------|
D |---------------------------------------------------------------|
A#|-------------------------3---3---3---3---3---3---3---3---------|
F#|-0---0---0---0---2---2-----------------------------------------|

ROLL 2

e |----1---1---1---1---1---1---1---1---1---1---1---1---1---1---------|
B |---2---2---2---2---2---2---2---2---2---2---2---2---2---2----------|
G |--3---3---3---3---3---3---3---3---3---3---3---3---3---3---3-3-----|
D |------------------------------------------------------------------|
A#|-----------------3---2---0---0---0---0---0---0---0---0---0--------|
F#|-0---0---2---2---------------------------------------------2------|

A verse consists of:

Roll 1 x 3
Roll 2 x 3
Roll 1 x 1

I know it's not exactly right but have a play around and see if you can make it better!




| /  slide up
| \  slide down
| h  hammer-on
| p  pull-off
| ~  vibrato
| +  harmonic
| x  Mute note
===============================================================================
            
Tabs too difficult? Try these video lessons and learn fast.




comments powered by Disqus
↑ Back to top | Tablatures and chords are parodies/interpretations of the original songs. You may use it for private study, scholarship, research or language learning purposes only