>
 >
Chino

Chino Chords

La Mancha De Rolando - Chino chords, tabs, tablatures, lyrics

Guitar lessons | Add/correct | Request | Top 50 tabs Artists:  A B C D E F G H I J K L M N O P Q R S T U V W X Y Z 0-9

Chino Chords – La Mancha De Rolando

CD, Sheet music, Poster

Do you like Chino? Share with your friends now
ChordsUkulele

Intro: 

e|--3-3---------------------------|
B|--3---3-----3---------3-----3---|
G|--0-------2---2-----0-----0-----|
D|--0-----0-----------------------|         X2
A|--2-------------0-2-----3-------|
E|--3-----------------------------|


     G                D                 Em       C
Una rubia y un chino buscan asilo en un falcon 73,
     G                D                 Em       C
no conocen mas que la soledad pero quieren salir a ver,
     G                D                 Em       C
el cansado de tanta guerra decide vender sus piernas,
     G                D                 Em       C
ella solo quiere irse a la mierda porque nadie la vio crecer.


     Em        C             G         D
e|-----------------------------------------------|
B|------0----------1------------3---------3------|
G|--------0----------0------------0---------2----|
D|---2-----------2------2-----0--------0------0--|
A|-----------------------------------------------|
E|-----------------------------------------------|


     Em                C            G       D
Miles y miles de bandas de rock buscan ganar dinero,
     Em                C                 G       D
solo algunos persiguen la claridad a otros todo les chupa un huevo,
     Em                C             G       D
la rubia le dice al chino dame el vino que esta frape,
     Em                C                 G         D
a la noche pasan, busco mi destino y yo no quiero mirar tv... es que...



estribillo: (igual a la intro)

    G       D       Em      C
De ahora en mas vivire viajando,
    G       D       Em      C
lejos de todo lo que me hace mal,
     G       D       Em      C   G  D  C
Lejos esta lo que estoy buscando...


     Em                C              G       D
Cuidado no soy tu amigo, viajamos juntos alguna vez,
     Em                C             G                 D
A la noche yo tengo frio, la rubia dijo y se hecho a correr es que
     Em                C                 G               D
Quiere alguien que este con ella y le de un poco mas de bola,
     Em                C
Le pidio un regalo a los reyes,
               G                        D
un hombre que nunca pero nunca la deje sola... dijo,


    G       D       Em      C
De ahora en mas vivire viajando,
    G       D       Em      C
lejos de todo lo que me hace mal,
     G       D       Em      C   G  D  C
Lejos esta lo que estoy buscando...


e|---------------------------------------------------|
B|------8b9------12h8--------------------------------|
G|--7h9-----9v--------7v---5s7-5-4s5h4---------------|
D|-------------------------------------5-5s7-5-2h5---|
A|---------------------------------------------------|
E|---------------------------------------------------|

e|--------------------------------------7-8-7-8-8s10---|
B|--8-8-5-5-5-8-5-8v---10b12(12)-10-8------------------|
G|-----------------------------------------------------|
D|-----------------------------------------------------|
A|-----------------------------------------------------|
E|-----------------------------------------------------|


    G       D       Em      C
De ahora en mas vivire viajando,
    G       D       Em      C
lejos de todo lo que me hace mal,
     G       D       Em      C   G  D  C
Lejos esta lo que estoy buscando...

     Em                C                 G       D
Una rubia y un chino buscan asilo en un falcon 73,
     Em                C                 G       D
no conocen mas que la soledad pero quieren salir a ver,
     Em         C                 G          D
el cansado de tanta guerra decide vender sus piernas,
     Em                C                 G          D
ella solo quiere irse a la mierda porque nadie la vio crecer.
     Em                C                 G       D
Miles y miles de bandas de rock buscan ganar dinero,
     Em                C                 G       D
solo algunos persiguen la claridad a otros todo les chupa un huevo,
     Em                C                 G       D
la rubia le dice al chino dame el vino que esta frape,
     Em                C                 G       D
a la noche pasan, busco mi destino y yo no quiero mirar tv... es que...

    G       D       Em      C
De ahora en mas vivire viajando,
    G       D       Em      C
lejos de todo lo que me hace mal,
     G       D       Em      C   G  D  C
Lejos esta lo que estoy buscando...


  G    D   Em   C     G  D
              viajandooo
 Em   C    G   D
  aaaahhh
Em   C       G  D  C
  viajandoo


(intro otra vez)

    G       D       Em      C
De ahora en mas vivire viajando,
    G       D       Em      C
lejos de todo lo que me hace mal,
     G       D       Em      C   G  D  C
Lejos esta lo que estoy buscando...


califiquen por favor





Comments


Popular La Mancha De Rolando tabs & chords
Antes Bass Tabs
Antes Chords
Arde La Ciudad Chords
Siempre Esperando Chords
Arde La Cuidad Tabs
Antes Ukulele
Arde La Ciudad Ukulele
Chino Ukulele
Siempre Esperando Ukulele


Song lyrics



↑ Back to top | Tablatures and chords are parodies/interpretations of the original songs. You may use it for private study, scholarship, research or language learning purposes only
© 2014 AZChords.com Contact us | Privacy policy | DMCA | Add/correct tabs | Request tabs | Top 50 tabs