>
 >
Arde La Cuidad

Arde La Cuidad Guitar Tabs

La Mancha De Rolando - Arde La Cuidad chords, tabs, tablatures, lyrics

Guitar lessons | Add/correct | Request | Top 50 tabs Artists:  A B C D E F G H I J K L M N O P Q R S T U V W X Y Z 0-9

Arde La Cuidad Guitar Tabs – La Mancha De Rolando

CD, Sheet music, Poster

Do you like Arde La Cuidad? Share with your friends now
Tabs
La Mancha de Rolando - Arde la cuidad

    C                   G   Am
e|--0----0--------------3---0----0--------------------------|
B|--1------1------------0---1------1------------------------|
G|--0--0-----0----------0---2--2-----2----------------------|
D|--2-------------------0---2-------------3-2---3-2-0-------|
A|--3-----------2-3-4---2---0-----------------3-------3-----|
E|--0-------------------3---0-------------------------------|

   C                   G    F              F
|--0----0--------------3----1-----1--------1-----1--------|
|--1------1------------0----1-------1------1-------1------|Fin de
|--0--0-----0----------0----2---2-----2----2---2-----2----|la intro.
|--2-------------------0----3--------------3--------------|
|--3-----------2-3-4---2----3--------------3--------------|
|--0-------------------3----1--------------1--------------|


C           G        F
Tu equipo volvio a ganar
C          G          F
te prendieron mil bengalas hoy
C          G     Am          F
la banda grita, tu nombre y ves
C         G          F
como la popular, se va a caer


Dm                         G
Pero tu estrella no esta mas
Dm              G       F-G
se la llevo la maņana


Estribillo:

C          G
Arde la ciudad
Am           F
llueve tu mirada gris
C           G
la gente festeja
   F
y vuelve a reir
     C          G
pero este carnaval
Am           F
hoy no te deja dormir
C             G
mires donde mires
F
ella esta ahi

Solo:

e|------------------------------------------------------------------|
B|----13---13---13---13----15---15---15---15---17-17-17-15-13-13----|
G|-12---12---12----12---12---12---12---12---------------------------|
D|------------------------------------------------------------------|
A|------------------------------------------------------------------|
E|------------------------------------------------------------------|

e|--------------------------------------|
B|--------13--15--15--------------------|
G|-11/12------------------- 12----------|
D|--------------------------------------|
A|--------------------------------------|
E|--------------------------------------|

e|----------------------------15-------13----12----12-13------|
B|-------13-13----13---15--------17-17----15----13------------|
G|-11/12-------12---------------------------------------------|
D|------------------------------------------------------------|
A|------------------------------------------------------------|
E|------------------------------------------------------------|

C         G          F
Tu vida siempre fue asi
C            G        F
te da y te quita por nada
C                G      Am      F
y aunque estes solo... sin corazon
C         G             F
ahora tenes que suguir la funcion

Dm                     G
Y es una fiesta el bodegon
Dm                     G     F-G
donde se junta la hinchada

Estribillo





Comments


Popular La Mancha De Rolando tabs & chords
Antes Bass Tabs
Antes Chords
Arde La Ciudad Chords
Chino Chords
Siempre Esperando Chords
Antes Ukulele
Arde La Ciudad Ukulele
Chino Ukulele
Siempre Esperando Ukulele


Song lyrics



↑ Back to top | Tablatures and chords are parodies/interpretations of the original songs. You may use it for private study, scholarship, research or language learning purposes only
© 2014 AZChords.com Contact us | Privacy policy | DMCA | Add/correct tabs | Request tabs | Top 50 tabs