>
 >
Surazul

Surazul Chords

La Ley - Surazul chords, tabs, tablatures, lyrics

Guitar lessons | Add/correct | Request | Top 50 tabs Artists:  A B C D E F G H I J K L M N O P Q R S T U V W X Y Z 0-9

Surazul Chords – La Ley

CD, Sheet music, Poster

Do you like Surazul? Share with your friends now
ChordsTabsUkulele
-----------------------------------------------------------------------------
                             Surazul-La Ley
-----------------------------------------------------------------------------
Guitar
Tuning:Normal

      E A D G B E
C     x 3 2 0 1 0
Fmaj  x x 3 2 1 0
G     3 2 0 0 0 3
Am    x x 2 2 1 0

Intro
           C               F  C      F        
             F
e|----------------------------------------------------------------------------|
B|----------------------------------------------------------------------------|
G|----------------------------------------------5-7-7/9~---7/9-7-5----5/7-5---|
D|------------------------------------------5-7--------------------7~------7--|
A|-----3-5-5/7~---5/7-5-3----3------------------------------------------------|
E|-3-5---------------------5~--5-3~-0-3-4/5~----------------------------------|
   C          F       C
e|----------------------------------------------------------------------------|
B|----------------------------------------------------------------------------|
G|-----------------4/5-4------------------------------------------------------|
D|-5~-----5--5/7~--------5----------------------------------------------------|
A|----5-7---------------------------------------------------------------------|
E|----------------------------------------------------------------------------|


C
 Solo sueña y dime
        F
Si todo esto es real
C
 Solo sueña y dime
      F
Si podremos llegar.

G                    Am
 Juntos aunque la distancia
              F
Nos deje ver
                     G
Que el amor es algo más.

C
 Solo sueña y dime
         F
Si hay posibilidad
C
 Solo sueña y dime
      F
Que jamás cambiarás.

G                      Am
 Aunque algunas circunstancias
              F
No dejen ver
                     G
Que es posible proyectarse.

F             C
 Me verás en el sur
F                       C
 Donde el mar es triste y azul
G                     Am
 Juntos aunque la distancia
              F
Nos deje ver
                     G
Que el amor es algo más.

Solo

  C                       F       C                       F
e|----------------------------------------------------------------------------|
B|-------------------------------------10-8---10-8---10-8---------------------|
G|-----5-5--------5-5---5-5~5h7-5----9------9------9------9--7/9-7-5--------5-|
D|-5/7------7~5/7-----7-----------7~---------------------------------7~-5-7---|
A|----------------------------------------------------------------------------|
E|----------------------------------------------------------------------------|
    G                     Am                        F
e|--------------------------------------------7/8/7-----7/8/7---8/10--10-8-|
B|--------10/12~10/12-------------------------------10---------------------|
G|5-5/7~---7/9~-7/9----7-5-9~-<7-5-----7>(x2)------------------------------|
D|------------------------7~------7-5--------------------------------------|
A|-------------------------------------------------------------------------|
E|-------------------------------------------------------------------------|
         G                                       C
e|-7-8-7-----10-8-7----------------------------------|
B|-------8~---------8-10-8-----8---------------------|
G|-------------------------9-7---9-7-5------5/7/9----|
D|-------------------------------------7-5-----------|
A|---------------------------------------------------|
E|---------------------------------------------------|

C
 Solo sueña y dime
      F
Seguiremos aca
C
 Solo sueña y dime
       F
Con esfuerzo avanzar
G                      Am
 Juntos aunque la impaciencia
              F
Nos deje ver
                     C
Que es difícil perdurar.

F             C
 Me verás en el sur
F                       C
 Donde el mar es triste y azul
F             C
 Me verás en el sur
F                       C
 Donde el mar es triste y azul
F C
 Surazul
F C
 Surazul
F C
 Surazul...

Escucha la cancion muy bien y
toca con eya.
Usa el hold note(~) y los slides(/)

| /  slide up
| \  slide down
| B  hammer-on
| p  pull-off
| ~  hold note
| +  harmonic
| x  Mute note
  b  Bend Note 1 whole step
  r  Release note


=============================================================================





Comments


Popular La Ley tabs & chords
Mentira Bass Tabs
Ciertos Civiles Chords
The Corridor Chords
Dia Cero Tabs
Mentira Unplugged Tabs
Mentira 2 Tabs
Aqua Ukulele
Ciclos Ukulele
Intenta Amar Ukulele
Surazul Ukulele


Song lyrics



↑ Back to top | Tablatures and chords are parodies/interpretations of the original songs. You may use it for private study, scholarship, research or language learning purposes only
© 2014 AZChords.com Contact us | Privacy policy | DMCA | Add/correct tabs | Request tabs | Top 50 tabs