» » »

Si Tu No Estas Aqui Bass tabs (ver.1)

Artists:  A B C D E F G H I J K L M N O P Q R S T U V W X Y Z # 

Si Tu No Estas Aqui Bass tabs (ver.1)

La Ley
Rating:
0/5 (0 votes)

Hard to play? Try these video lessons and learn fast.
                No encontre en ninguna parte la tablatura de esta cancion en bajo, asi que la toque como 
se escucha y aqui esta el resultado:


Intro ( es casi toda la cancion asi pero un poco variado)

G------------------------------------------|
D----7-7-9-4-4-4-2-0-5-5-0-5-0-7-7-0-7-7---|  x7
A--5---------------------------------------|
E------------------------------------------|

Cuando Empieza el solo es.. (solo al empezar.. escuchen con atencion esa parte).

G---------------------------------------|
D--7-7--7---7-7-------------------------|
A-----7---7-----7-----------------------|
E---------------------------------------|

Despues durante el solo se vuelve ala primera parte

G----------------------------------------|
D----7-7-9-4-4-4-2-0-5-5-0-5-0-7-7-0-7-7-|
A--5-------------------------------------|
E----------------------------------------|

Al final de el solo hacen de nuevo lo de el principio de el solo...


G---------------------------------------|
D--7-7--7---7-7-------------------------|
A-----7---7-----7-----------------------|
E---------------------------------------|

Despues el resto de la cancion es lo mismo que el principio..

G----------------------------------------|
D----7-7-9-4-4-4-2-0-5-5-0-5-0-7-7-0-7-7-|
A--5-------------------------------------|
E----------------------------------------|

solo que al final de la cancion hacen esto....


G---------------------------------------|
D--7-7--7---7-7-------------------------|
A-----7---7-----7-----------------------|
E---------------------------------------|



Ahi esta completa...
Espero les guste y cualquier duda, envien un correo a
            
Hard to play? Try these video lessons and learn fast. | Correct




comments powered by Disqus
↑ Back to top | Tablatures and chords are parodies/interpretations of the original songs. You may use it for private study, scholarship, research or language learning purposes only