» » »

La Ley, Sabes Quien Eres Tabs (ver.1)

Artists:  A B C D E F G H I J K L M N O P Q R S T U V W X Y Z # 

Sabes Quien Eres Tabs (ver.1)

La Ley Tabs
 Rating:
4/5 (4 votes)
Sabes Quien Eres lessons Tabs too difficult? Try these video lessons and learn fast
1
                tuning: standard

Em              0 2 2 0 0 0
C               0 3 2 0 1 0
Am              0 0 2 2 1 0
G               3 2 0 0 0 2


Intro & Verse

       Em     C      Em     C
e ---------------------------------|
B ------------11------------11-----|
G ------------00------------00-----|
D --2--2--2---22---2--2--2--22-----|
A --2--2--2---33---2--2--2--33-----|
E --0--0--0---00---0--0--0--00-----|

Chorus

       C        Am        Em         G
e --0-0-0-0---0-0-0-0---0-0-0-0---2-2-2-2------|
B --1-1-1-1---1-1-1-1---0-0-0-0---0-0-0-0------|
G --0-0-0-0---2-2-2-2---0-0-0-0---0-0-0-0------|
D --2-2-2-2---2-2-2-2---2-2-2-2---0-0-0-0------|
A --3-3-3-3---0-0-0-0---2-2-2-2---2-2-2-2------|
E --3-3-3-3---0-0-0-0---0-0-0-0---3-3-3-3------|

sounds ok. this is what i've come up with so far.
            
Submit corrections

comments powered by Disqus
↑ Back to top | La Ley Tabs for Sabes Quien Eres. Lyrics for acoustic guitar and electric guitar. 1 Tablatures and chords are parodies/interpretations of the original songs. You may use it for private study, scholarship, research or language learning purposes only