» » »

El Duelo Bass tabs (ver.1)

Artists:  A B C D E F G H I J K L M N O P Q R S T U V W X Y Z # 

El Duelo Bass tabs (ver.1)

La Ley
Rating:
0/5 (0 votes)

Hard to play? Try these video lessons and learn fast.
                La Ley - El Duelo

Not the best, but you get the idea.

Tuning:  standard


G|-----------------------------------------------------------------------|
D|-----------------------------------------------------------------------|
A|---------------0--2/3------3\---------------0-2/3----------------------|
E|--0--------3--------------------0---------3----------------------12\---|

Verse

G|----------------------------------------------------------------------|
D|---------------------------------------------5-----7-7-5--------------|
A|---------------------------------5-----7-7--------------------7-7-5---|
E|--0-0-2------2-3-5------7-7-------------------------------------------|

G|----------------------------------------------------------------------|
D|----------------------------------------------------------------------|
A|--5-3-2---------------------------------------------------------------|
E|---------------3-5-3--------------------------------------------------|

Chorus

G|----------------------------------------------------------------------|
D|--/9---7---4----------------------------------------------------------|
A|----------------5----0-0-2-3-3----------------------------------------|
E|----------------------------------------------------------------------|

G|----------------------------------------------------------------------|
D|----------------------------------------------------------------------|
A|------------2-2-2---3-3-3---0-0-0-------------------------------------|
E|---3-3-3--------------------------------------------------------------|




| /  slide up
| \  slide down
| h  hammer-on
| p  pull-off
| ~  vibrato
| +  harmonic
| x  Mute note =======================================================================
            
Hard to play? Try these video lessons and learn fast. | Correct




comments powered by Disqus
↑ Back to top | Tablatures and chords are parodies/interpretations of the original songs. You may use it for private study, scholarship, research or language learning purposes only