>
 >
Delirando 2

Delirando 2 Guitar Tabs

La Ley - Delirando 2 chords, tabs, tablatures, lyrics

Guitar lessons | Add/correct | Request | Top 50 tabs Artists:  A B C D E F G H I J K L M N O P Q R S T U V W X Y Z 0-9

Delirando 2 Guitar Tabs – La Ley

CD, Sheet music, Poster

Do you like Delirando 2? Share with your friends now
ChordsTabsTabs v2Ukulele
Bueno en el Intro y en
el verso tocan 2 guitarras
como lo pongo a continuacion:

Guitarra 1:

e|---------------------------------------------|
b|---------------------------------------------|
g|---------------------------------------------|
D|---------------------------------------------|
A|--------------------5^7----------------------|
E|-0-3-0-5-3~-5^6-5^6-----0-3-0-5-3~-5^6-5^6-5-|

Guitarra 2:

e|---------------------------------------------|
b|----------------------5----------------------|
g|--------------------7------------------------|
D|---5---7-5~-7^8-7^8-------5---7-5~-7^8-7^8-7-|
A|-7---7------------------7---7----------------|
E|---------------------------------------------|

Luego de tocar hartas veces lo de
arriba se tocan estos acordes y
esta tablatura:

Coro:
Em   G   Em   G


Em        G  A    Em
  Estoy llegando donde nunca fuy
e|--------------------------------------|
b|--------------------------------------|
g|--------------------------------------|: G1
D|--------------------------------------|
A|-------------------2~~~---5~~-5~~-5~~-|
E|---------------3-5--------------------|

      Em   G  A
       Delirando
e|--------------------|
b|--------------------|
g|--------------------|: G1
D|--------------------|
A|-----2~~--4~-4~-4~--|
E|-3-5----------------|

 Em      G         A
  haaaaaaaaa....  despirtame
e|-------------------------|
b|-------------------------|
g|-------------------------|: G1
D|-------------------------|
A|------2~~~---5~~-5~~-5~~-|
E|--3-5--------------------|

Verso:

 ................Para llegar...........Donde no hay..
e|---------------------------------------------|
b|---------------------------------------------|
g|---------------------------------------------|: G1
D|---------------------------------------------|
A|--------------------5^7----------------------|
E|-0-3-0-5-3~-5^6-5^6-----0-3-0-5-3~-5^6-5^6-5-|

e|---------------------------------------------|
b|----------------------5----------------------|
g|--------------------7------------------------|: G2
D|---5---7-5~-7^8-7^8-------5---7-5~-7^8-7^8-7-|
A|-7---7------------------7---7----------------|
E|---------------------------------------------|

   Referencia de sociedad.............no jusgare.
e|---------------------------------------------|
b|---------------------------------------------|
g|---------------------------------------------|: G1
D|---------------------------------------------|
A|--------------------5^7----------------------|
E|-0-3-0-5-3~-5^6-5^6-----0-3-0-5-3~-5^6-5^6-5-|

e|---------------------------------------------|
b|----------------------5----------------------|
g|--------------------7------------------------|: G2
D|---5---7-5~-7^8-7^8-------5---7-5~-7^8-7^8-7-|
A|-7---7------------------7---7----------------|
E|---------------------------------------------|

  .............ni dictare.............las leyes
e|---------------------------------------------|
b|---------------------------------------------|
g|---------------------------------------------|: G1
D|---------------------------------------------|
A|--------------------5^7----------------------|
E|-0-3-0-5-3~-5^6-5^6-----0-3-0-5-3~-5^6-5^6-5-|

e|---------------------------------------------|
b|----------------------5----------------------|
g|--------------------7------------------------|: G2
D|---5---7-5~-7^8-7^8-------5---7-5~-7^8-7^8-7-|
A|-7---7------------------7---7----------------|
E|---------------------------------------------|

  que en mi mente..........
e|---------------------------------------------|
b|---------------------------------------------|
g|---------------------------------------------|: G1
D|---------------------------------------------|
A|--------------------5^7----------------------|
E|-0-3-0-5-3~-5^6-5^6-----0-3-0-5-3~-5^6-5^6-5-|

e|---------------------------------------------|
b|----------------------5----------------------|
g|--------------------7------------------------|: G2
D|---5---7-5~-7^8-7^8-------5---7-5~-7^8-7^8-7-|
A|-7---7------------------7---7----------------|
E|---------------------------------------------|

Pre-coro:

   Em       G       A
Todos los dias predican asi.....!te lo digo yooooooo!
e|---------------------------------------------------|
b|---------------------------------------------------|
g|---------------------------------------------------|: G1
D|---------------------------------------------------|
A|---------------------------------------------------|
E|--------------------------03^5-3^5-3^5-3^5-3^5-3^5-|

e|--------------------------03^5-3^5-3^5-3^5-3^5-3^5-|
b|---------------------------------------------------|
g|---------------------------------------------------|: G2
D|---------------------------------------------------|
A|---------------------------------------------------|
E|---------------------------------------------------|

Nota: Bueno, siempre cuando es el coro
la guitarra 2 rasguea y la guitarra 1
hace los punteos y en los pre-coros las
2 guitarras rasguean, para que no se
confundan

Em        G  A        Em        G  A
  Estoy llegando      donde nunca fuy
e|---------------------------------------------|
b|---------------------------------------------|
g|---------------------------------------------|: G1
D|---------------------------------------------|
A|-----2~~--4~-4~-4~-------2~~--5~-5~-5~-------|
E|-3-5-----------------3-5---------------------|

      Em    G  A
       Delirando
e|--------------------|
b|--------------------|
g|--------------------|: G1
D|--------------------|
A|-----2~~--4~-4~-4~--|
E|-3-5----------------|


   Em           G   A
  De locura y sensates......
e|-------------------------|
b|-------------------------|
g|-------------------------|: G1
D|-------------------------|
A|------2~~~---5~~-5~~-5~~-|
E|--3-5--------------------|

                                        Em    G   A
  ................ Estoy robando
e|---------------------------------|
b|---------------------------------|
g|---------------------------------|: G1
D|---------------------------------|
A|------------------2~~--4~-4~-4~--|
E|--------------3-5----------------|

       Em           G   A
  El tiempo que perdi......
e|-------------------------|
b|-------------------------|
g|-------------------------|: G1
D|-------------------------|
A|------2~~~---5~~-5~~-5~~-|
E|--3-5--------------------|

      Em    G  A
       Delirando
e|--------------------|
b|--------------------|
g|--------------------|: G1
D|--------------------|
A|-----2~~--5~-5~-5~--|
E|-3-5----------------|

Em           G   A
  De locura y sensates......
e|-------------------------|
b|-------------------------|
g|-------------------------|: G1
D|-------------------------|
A|------2~~~---4~~-4~~-4~~-|
E|--3-5--------------------|

Em           G   A
  De locura y sensateeees......
e|-------------------------0~-|
b|-------------------------0~-|
g|-------------------------0~-|: G1
D|-------------------------2~-|
A|------2~~~---5~~-5~~-5~~-2~-|
E|--3-5-----------------------|


Solo de Teclado:

e|---------------------------------------------|
b|---------------------------------------------|
g|---------------------------------------------|:x4
D|---------------------------------------------|
A|--------------------5^7----------------------|
E|-0-3-0-5-3~-5^6-5^6-----0-3-0-5-3~-5^6-5^6-5-|

e|---------------------------------------------|
b|----------------------5----------------------|
g|--------------------7------------------------|:x4
D|---5---7-5~-7^8-7^8-------5---7-5~-7^8-7^8-7-|
A|-7---7------------------7---7----------------|
E|---------------------------------------------|

Pre-coro:

   Em       G       A
Todos los dias predican asi.....!te lo digo yooooooo!
e|---------------------------------------------------|
b|---------------------------------------------------|
g|---------------------------------------------------|: G1
D|---------------------------------------------------|
A|---------------------------------------------------|
E|--------------------------03^5-3^5-3^5-3^5-3^5-3^5-|

e|--------------------------03^5-3^5-3^5-3^5-3^5-3^5-|
b|---------------------------------------------------|
g|---------------------------------------------------|: G2
D|---------------------------------------------------|
A|---------------------------------------------------|
E|---------------------------------------------------|

Em        G  A        Em        G  A
  Estoy llegando      donde nunca fuy
e|---------------------------------------------|
b|---------------------------------------------|
g|---------------------------------------------|: G1
D|---------------------------------------------|
A|-----2~~--4~-4~-4~-------2~~--5~-5~-5~-------|
E|-3-5-----------------3-5---------------------|

      Em    G  A
       Delirando
e|--------------------|
b|--------------------|
g|--------------------|: G1
D|--------------------|
A|-----2~~--4~-4~-4~--|
E|-3-5----------------|


   Em           G   A
  De locura y sensateees
e|-------------------------|
b|-------------------------|
g|-------------------------|: G1
D|-------------------------|
A|------2~~~---5~~-5~~-5~~-|
E|--3-5--------------------|

         Em    G   A
  Estoy robando
e|---------------------|
b|---------------------|
g|---------------------|: G1
D|---------------------|
A|------2~~--4~-4~-4~--|
E|--3-5----------------|

       Em           G   A
  El tiempo que perdi......
e|-------------------------|
b|-------------------------|
g|-------------------------|: G1
D|-------------------------|
A|------2~~~---5~~-5~~-5~~-|
E|--3-5--------------------|

      Em    G  A
       Delirando
e|--------------------|
b|--------------------|
g|--------------------|: G1
D|--------------------|
A|-----2~~--4~-4~-4~--|
E|-3-5----------------|

Em           G   A
  De locura y sensateees
e|-------------------------|
b|-------------------------|
g|-------------------------|: G1
D|-------------------------|
A|------2~~~---5~~-5~~-5~~-|
E|--3-5--------------------|

Em           G   A
  De locura y sensates
e|-------------------------|
b|-------------------------|
g|-------------------------|: G1
D|-------------------------|
A|------2~~~---4~~-4~~-4~~-|
E|--3-5--------------------|

Em           G   A
  De locura y sensateees
e|-------------------------|
b|-------------------------|
g|-------------------------|: G1
D|-------------------------|
A|------2~~~---5~~-5~~-5~~-|
E|--3-5--------------------|

Em           G   A
  De locura y sensates
e|-------------------------|
b|-------------------------|
g|-------------------------|: G1
D|-------------------------|
A|------2~~~---4~~-4~~-4~~-|
E|--3-5--------------------|


Final:

Guitarra 1:
e|-x-------------x-------------|
b|-x-12-12-12-12-x-15-15-15-15-|
g|-x-12-12-12-12-x-15-15-15-15-|:x4
D|-x-12-12-12-12-x-15-15-15-15-|
A|-x-12-x--x--12-x-15-x--x--15-|
E|-x-------------x-------------|

Guitarra 2:
e|-x-0--0--0--0--x-3--3--3--3--|
b|-x-0--0--0--0--x-0--0--0--0--|
g|-x-0--0--0--0--x-0--0--0--0--|:x4
D|-x-2--2--2--2--x-0--0--0--0--|
A|-x-2--x--x--2--x-2--2--2--2--|
E|-x-------------x-3--x--x--3--|

Guitarra 1:
e|-x---------------------------0~~~~~-|
b|-x-12~~~~~~----15~~~~~~------0~~~~~-|
g|-x-12~~~~~~----15~~~~~~------0~~~~~-|
D|-x-12~~~~~~----15~~~~~~------2~~~~~-|
A|-x-12~~~~~~----15~~~~~~------2~~~~~-|
E|-x----------------------------------|

Guitarra 2:
e|-x-0--0--0--0--x-3--3--3--3--0~~~~~-|
b|-x-0--0--0--0--x-0--0--0--0--0~~~~~-|
g|-x-0--0--0--0--x-0--0--0--0--0~~~~~-|
D|-x-2--2--2--2--x-0--0--0--0--2~~~~~-|
A|-x-2--x--x--2--x-2--2--2--2--2~~~~~-|
E|-x-------------x-3--x--x--3---------|





Comments


Popular La Ley tabs & chords
Animal 1 Chords
Cielo Market 2 Chords
Prisioneros De La Piel Chords
Aqui Tabs
Aqui Unplugged Tabs
Doble Opuesto Tabs
Paraiso Tabs
1-800 Dual Ukulele
Bienvenido Al Anochecer Ukulele
Paraiso Ukulele


Song lyrics



↑ Back to top | Tablatures and chords are parodies/interpretations of the original songs. You may use it for private study, scholarship, research or language learning purposes only
© 2014 AZChords.com Contact us | Privacy policy | DMCA | Add/correct tabs | Request tabs | Top 50 tabs