» » »

La Ley, Bienvenido Al Anochecer Chords (ver.1)

Artists:  A B C D E F G H I J K L M N O P Q R S T U V W X Y Z # 

Bienvenido Al Anochecer Chords (ver.1)

La Ley Tabs
Rating:
0/5 (0 votes)
Bienvenido Al Anochecer lessons Tabs too difficult? Try these video lessons and learn fast
                Bienvenido al anochecer.

Riffs- les recomiendo ponerle un poco de delay a su guitarra y jueguen con los riffs.
Se repiten en casi toda la canción escuchenlos bien.

Intro.

0:12

e------v10-v10-v10-----|
b----------------------|
g----------------------|
d----------------------|
a----------------------|
E----------------------|

0:16

e-----v12--v14-----10-v10--|
b--------------------------|
g--------------------------|
d--------------------------|
a--------------------------|
E--------------------------|


0:23

e----12--10-------10-v10----|
b---------------------------|
g---------------------------|
d---------------------------|
a---------------------------|
E---------------------------|


0:28 – 0:42

e-------15 ^ ^---14^ ^-------|
b----------------------------|
g----------------------------|
d----------------------------|
a----------------------------|
E----------------------------|


1:09

e----10-10-10-10-10--------12--v10-----------|
b--------------------------------------------|
g--------------------------------------------|
d--------------------------------------------|
a--------------------------------------------|
E--------------------------------------------|


1:47

e----17--17-----12-v10---------|
b------------------------------|
g------------------------------|
d------------------------------|
a------------------------------|
E------------------------------|


2:06

e-----------------------------|
b--------------14--12--15-----|
g---13^ ^---------------------|
d-----------------------------|
a-----------------------------|
E-----------------------------|

2:20

e---0----10--11---12-----0----10--11---12-------|
b-----------------------------------------------|
g-----------------------------------------------|
d-----------------------------------------------|
a-----------------------------------------------|
E-----------------------------------------------|


(aquí puedes arpegiar)
D-G
D-G

D        G
Bienvenido al anochecer
D                G
Siempre y cuando sepas morir
D          G
Vienes desde un atardecer
D                      G
Donde a veces hay que sufrir
D                       G
Sí en tu mirada cargas, un océano
D                           G
De lágrimas heladas, con un tempano
D              G
Bienvenido al anochecer
D                 G
Siempre y cuando sepas morir
Em
El tiempo corre atropellando
           F
Avenidas desmedidas por una razón
Em
Y es que cada uno camina en el sentido
                F
Que su vida lo ilumina hacia una verdad
         D  G
Una verdad …..

D-G
D-G

D             G
Siete días de bendición
D                        G
Cada segundo cuenta, una historia de resignación
D                                               G
Y en este gran desierto donde un día es como el agua que nunca cayó
D          G
Ya no hay lluvia para existir
Em
El tiempo corre atropellando
           F
Avenidas desmedidas por una razón

Em
Y es que cada uno camina en el sentido
                 F
Que su vida lo ilumina hacía una verdad…

Por eso….

-Coro-
C        G       F
Bienvenido al anochecer
C     G        F
Donde algunos están de pie
C          G        F
Esperando volver a nacer
C                           G
Siempre hay una razón para seguir
                              F                   C
Sintiendo el paso que este tiempo nos marcó a los dos.

D-G
D-G

D               G
Ya tu sombra se despidió
D
No quedan más palabras
G
Sólo escucho una respiración
D                 G
Y cruzarás el, anochecer
D                       G
Siempre y cuando puedas seguir…
Em
El tiempo corre atropellando
            F
Avenidas desmedidas por una razón
Em
Y es que cada uno camina
                               F
en el sentido que su vida lo ilumina hacía una verdad

por eso…..

C        G        F
Bienvenido al anochecer
C         G            F
Donde algunos dejan de ser
C           G         F
Esperando volver a nacer
C                             G
Siempre hay una razón para seguir
                                         F
Sintiendo el paso que este tiempo nos marcó..
C       G         F
Bienvenido al anochecer
C     G            F
Donde algunos están de pie

C          G         F
Esperando volver a nacer..
C                    G
Para volver a descubrir
F
Caminos que nos llevarán…
G
Caminos que nos llevarán
C
A los dos.
            

comments powered by Disqus
↑ Back to top | La Ley Chords for Bienvenido Al Anochecer. Lyrics for acoustic guitar and electric guitar. Tablatures and chords are parodies/interpretations of the original songs. You may use it for private study, scholarship, research or language learning purposes only