» » »

La Ley, Aqui Bass tabs (ver.1)

Artists:  A B C D E F G H I J K L M N O P Q R S T U V W X Y Z # 

Aqui Bass tabs (ver.1)

La Ley Tabs
 Rating:
4/5 (4 votes)
Aqui lessons Tabs too difficult? Try these video lessons and learn fast
1
                Y como ya agruegue la tablatura les completo la canción con el bajeo, espero sea d' su agrado.
I add the guitar tab, now the bass tab to complete the song.

-=Intro=-
G|--------------------------------------------------|]
D|--------------------------------------------------|]
A|--5--5--5--5--5--5--5--5--------------------------|]
E|--------------------------3--3--3--3--3--3--3--3--|]

-=Verso 1=-
G|---------------------------------------------------|]
D|---------------------------------------------------|]
A|-5-5--55-5--5-5--55-5------------------------------|]
E|-----------------------3-3--33-3/10--3-3--3-3--33--|] x2

-=Pre Coro=-
G|--------------------------------------------------|]
D|--------------------------------------------------|]
A|--------------------------------------------------|]
E|--0--0--0--0--0--0--0--0--5--5--5--5--5--5--5--5--|]

-=Verso 2=-
G|---------------------------------------------------|]
D|---------------------------------------------------|]
A|-5-5--55-5--5-5--55-5------------------------------|]
E|-----------------------3-3--33-3/10--3-3--3-3--33--|] x2

-=Pre Coro=-
G|--------------------------------------------------|]
D|--------------------------------------------------|]
A|--------------------------------------------------|]
E|--0--0--0--0--0--0--0--0--5--5--5--5--5--5--5--5--|]

-=Coro=-
G|-------------------------------------------------------------------|]
D|-------------------------------------------------------------------|]
A|--5-5-5-5-5-5-5-5--------------------------------------------------|]
E|------------------3-3-3-3-3-3-3-3-0-0-0-0-0-0-0-0-5-5-5-5-5-5-5-5--|]

G|------------------|]
D|------------------|]
A|-5-5-5-5----------|]
E|---------3-3-3-3--|]

-=Verso 3=-
G|---------------------------------------------------|]
D|---------------------------------------------------|]
A|-5-5--55-5--5-5--55-5------------------------------|]
E|-----------------------3-3--33-3/10--3-3--3-3--33--|] x2

-=Pre Coro=-
G|--------------------------------------------------|]
D|--------------------------------------------------|]
A|--------------------------------------------------|]
E|--0--0--0--0--0--0--0--0--5--5--5--5--5--5--5--5--|] x2

-=Coro=-
G|-------------------------------------------------------------------|]
D|-------------------------------------------------------------------|]
A|--5-5-5-5-5-5-5-5--------------------------------------------------|]
E|------------------3-3-3-3-3-3-3-3-0-0-0-0-0-0-0-0-5-5-5-5-5-5-5-5--|]

G|------------------|]
D|------------------|]
A|-5-5-5-5----------|]
E|---------3-3-3-3--|](x2 coro)

-=Interlude Pre Solo=-

-=Solo=-
G|-------------------------------------------------------------------|]
D|-------------------------------------------------------------------|]
A|--5-5-5-5-5-5-5-5--------------------------------------------------|]
E|------------------3-3-3-3-3-3-3-3-0-0-0-0-0-0-0-0-5-5-5-5-5-5-5-5--|]

-=Pre Coro=-
G|--------------------------------------------------|]
D|--------------------------------------------------|]
A|--------------------------------------------------|]
E|--0--0--0--0--0--0--0--0--5--5--5--5--5--5--5--5--|] 

-=Coro=-
G|-------------------------------------------------------------------|]
D|-------------------------------------------------------------------|]
A|--5-5-5-5-5-5-5-5--------------------------------------------------|]
E|------------------3-3-3-3-3-3-3-3-0-0-0-0-0-0-0-0-5-5-5-5-5-5-5-5--|] x2

G|------------------|]
D|------------------|]
A|-5-5-5-5----------|]
E|---------3-3-3-3--|]x4

-=Final=-
G|--------|]
D|--------|]
A|--5~~~--|]
E|--------|]


Saludos a Hemrmosillo, Sonora, México & Tijuana, BC, México
atte: Ramón Guillermo Galáz Rios
            
Submit corrections

comments powered by Disqus
↑ Back to top | La Ley Bass for Aqui. Lyrics for acoustic guitar and electric guitar. 1 Tablatures and chords are parodies/interpretations of the original songs. You may use it for private study, scholarship, research or language learning purposes only