>
 >
Amate Y Salvate

Amate Y Salvate Guitar Tabs

La Ley - Amate Y Salvate chords, tabs, tablatures, lyrics

Guitar lessons | Add/correct | Request | Top 50 tabs Artists:  A B C D E F G H I J K L M N O P Q R S T U V W X Y Z 0-9

Amate Y Salvate Guitar Tabs – La Ley

CD, Sheet music, Poster

Do you like Amate Y Salvate? Share with your friends now
ChordsTabsUkulele
La Ley | Amate y Salvate | Beto Cuevas | Libertad (2003)
Intro:

      A5        G5
e|--x-x-x-x-x-x-x-|
b|--x-x-x-x-x-x-x-|
g|--x-x-x-x-x-x-x-|
D|--7-7-7-7-7-7/5-| x2 no bass and drums here             
A|--7-7-7-7-7-7/5-|     
E|--5-5-5-5-5-5/3-|


      A5        G5
e|--x-x-x-x-x-x-x-x|
b|--x-x-x-x-x-x-x-x|
g|--x-x-x-x-x-x-x-x|
D|--7-7-7-7-7-7/5-x|x2 bass and rums and riff 1 
A|--7-7-7-7-7-7/5-x|     
E|--5-5-5-5-5-5/3-x|

   Riff 1
e|---------------|
b|---------------|
g|---------------|
D|---------------|
A|-----0h3p0-----|
E|--0h3------3-5-|

A5             G5  Rifft 2 (x2)
Mirame a los ojos
A5             G5  Rifft 2 (x2)
Y mira este lugar 
A5          G5   Rifft 2 (x2)
Todas las heridas
A5           G5  Riff 2 y Rifft 1
Quieren respirar
A5         G5  Rifft 3 (x2)
Han envejecido
A5           G5   Rifft 3 (x2)
Adictos al poder
A5              G5   Rifft 3 (x2)
Quiebran sus arrugas
A5         G5  Rifft 3 (x2)
Una nueva piel



    "Rifft 2"
   PM------|
e|-----------------------------|
b|-----------------------------|
g|-----------------------------|
D|--x-x-x-x-(7)-(7)-(7)-(7)-(7)|
A|-----------------------------|
E|-----------------------------|

   "Rifft 3"
  PM-------|
e|----------------------------------|
b|----------------------------------|
g|----------------------------------|
D|--x-x-x-x-(7)-(7)-(7)-(7)----(7)--|
A|--x-x-x-x----------------(7)------|
E|----------------------------------|
     C              Am     G
e|------------0---------------3---|
b|--------1-----------1-----------|
g|----------2-------2------0------|
D|------2---------2---------------|
A|----3------------------2--------|
E|--3--------------------3--------|
  En la sombra   del    dolor
     C              Am     G
e|------------0---------------3---|
b|--------1-----------1-----------|
g|----------2-------2------0------|
D|------2---------2---------------|
A|----3------------------2--------|
E|--3--------------------3--------|
   Cae el cielo sobre el suelo
     C              Am     G
e|------------0---------------3---|
b|--------1-----------1-----------|
g|----------2-------2------0------|
D|------2---------2---------------|
A|----3------------------2--------|
E|--3--------------------3--------|
   La respuesta de ese cambio 

     D       Dsus4       D     Dm
e|-------2---3-------2-------|
b|----3----------3------3----|
g|---2-2---2---2---2—-2---2--| (x2)
D|--0------------------------|
A|---------------------------|
E|---------------------------|
   Eres tuuuuuuuu (Se repite 2 veces y en la segunda se toca Dm 
en lugar de D)

    D  Dsus4                     G
e|-------3-------|      e|----------3-------|  
b|----3------3---|      b|------3-------3---|
g|---2-2---2---3-|(x2)  g|--------0---0---0-|
D|--0------------|      D|------------------|(X2)
A|---------------|      A|----2-------------|
E|---------------|      E|--3---------------|
  Amateeeeeeeeeee           y salvate-e-eee

   D  Dsus4                     G
e|-------3-------|      e|----------3-------|  
b|----3------3---|      b|------3-------3---|
g|---2-2---2---3-|(x2)  g|--------0---0---0-|
D|--0------------|      D|------------------|(X2)
A|---------------|      A|----2-------------|
E|---------------|      E|--3---------------|
  Amateeeeeeeeeee           y salvate-e-eee


A5           G5   Rifft 2 (x2)
Caen las fronteras
A5         G5     Rifft 2 y Rifft 1
De la desigualdad
A5              G5   Rifft 2
Vuelven los fantasmas
A5               G5        Rifft 2
De nuestra humanidaa-aa-aad

   C              Am          G
e|------------0---------------3---|
b|--------1-----------1-----------|
g|----------2-------2------0------|
D|------2---------2---------------|
A|----3------------------2--------|
E|--3--------------------3--------|
  En la sombra   del    dolor
     C              Am     G
e|------------0---------------3---|
b|--------1-----------1-----------|
g|----------2-------2------0------|
D|------2---------2---------------|
A|----3------------------2--------|
E|--3--------------------3--------|
   Cae el cielo sobre el suelo
     C              Am     G
e|------------0---------------3---|
b|--------1-----------1-----------|
g|----------2-------2------0------|
D|------2---------2---------------|
A|----3------------------2--------|
E|--3--------------------3--------|
   La respuesta de ese cambio 

    D       Dsus4       D        Dm  
e|-------2---3-------2-------|
b|----3----------3------3----|
g|---2-2---2---2---2—-2---2--| (x2)
D|--0------------------------|
A|---------------------------|
E|---------------------------|
   Eres tuuuuuuuu (Se repite 2 veces)

    D  Dsus4                     G
e|-------3-------|      e|----------3-------|  
b|----3------3---|      b|------3-------3---|
g|---2-2---2---3-|(x2)  g|--------0---0---0-|
D|--0------------|      D|------------------|(X2)
A|---------------|      A|----2-------------|
E|---------------|      E|--3---------------|
  Amateeeeeeeeeee           y salvate-e-eee


   D  Dsus4                     G
e|-------3-------|      e|----------3-------|  
b|----3------3---|      b|------3-------3---|
g|---2-2---2---3-|(x2)  g|--------0---0---0-|
D|--0------------|      D|------------------|(X2)
A|---------------|      A|----2-------------|
E|---------------|      E|--3---------------|
  Amateeeeeeeeeee           y salvate-e-eee

                Bm
e|--2---------------------2-----|
b|--3---------------3-----------|
g|--4-------------------4-------|
D|--4—-----------4--------------|
A|--2---------------------------|
E|--2---------------------------|
   En los templos de clemencia
              G
e|--3--------------------3------|
b|--3----------------3-----3----|
g|--4--------------4---4-----4--|
D|--5------------5--------------|
A|--5---------------------------|
E|--3---------------------------|
   Muchos dioses mucha dolencia


                Bm
e|--2---------------------2-----|
b|--3---------------3-----------|
g|--4-------------------4-------|
D|--4—-----------4--------------|
A|--2---------------------------|
E|--2---------------------------|
    Se disputan territorios
              G
e|--3--------------------3------|
b|--3----------------3-----3----|
g|--4--------------4---4-----4--|
D|--5------------5--------------|
A|--5---------------------------|
E|--3---------------------------|
       Conquistados y el sacrificio

    D       Dsus4      D         Dm  
e|-------2---3-------2-------|
b|----3----------3------3----|
g|---2-2---2---2---2—-2---2--| (x2)
D|--0------------------------|
A|---------------------------|
E|---------------------------|
   Eres tuuuuuuuu (Se repite 2 veces9


A5          G5
Ama a tu enemigo
A5            G5   Rifft 1
Cuelga tu ambición
A5        G5
Sobreviviremos
A5        G5
A la desolacio—oo-oo-oo-oon

Solo:
          Bm                 G
e|-----------------------------------------|
b|----------------------5---5--5-----------|
g|--4—4—4—-4—4—4-4-4b---4b—4b--4b-4//////--|
D|--x—x—x—-x—x-x—x—-0----------------------|
A|--2—2—2—-5-5-2—2-------------------------|
E|-----------------------------------------|
  PM--------|  PM-----|   PM-----|   PM-----| 
e|---------------------------------------------|
b|--x-x-x-x-5/-x-x-x-x-5/-x-x-x-x-5/-x-x-x-x-4-|
g|--x-x-x-x-5/-x-x-x-x-5/-x-x-x-x-5/-x-x-x-x-5-|
D|---------------------------------------------|
A|---------------------------------------------|
E|---------------------------------------------|

e|--------------5-5-5-5/7-7-7/9-9/10-10/12-12/14-14/16-16~-|
b|--5/7-7-7-7-7--------------------------------------------|
g|---------------------------------------------------------|
D|---------------------------------------------------------|
A|---------------------------------------------------------|
E|---------------------------------------------------------|





e|----------------------------------------------------------
b|--/16--16-16-16—-16-16-16-16-16/----/17-17-17-17-17-17-17-
g|--/17--17-17-17—-17-17-17-17-17/----/15-15-15-15-15-15-15-
D|----------------------------------------------------------
A|----------------------------------------------------------
E|----------------------------------------------------------



   D  Dsus4                     G
e|-------3-------|      e|----------3-------|  
b|----3------3---|      b|------3-------3---|
g|---2-2---2---3-|(x2)  g|--------0---0---0-|
D|--0------------|      D|------------------|(X2)
A|---------------|      A|----2-------------|
E|---------------|      E|--3---------------|
  Amateeeeeeeeeee           y salvate-e-eee

     D  Dsus4                     G
e|-------3-------|      e|----------3-------|  
b|----3------3---|      b|------3-------3---|
g|---2-2---2---3-|(x2)  g|--------0---0---0-|
D|--0------------|      D|------------------|(X2)
A|---------------|      A|----2-------------|
E|---------------|      E|--3---------------|
  Amateeeeeeeeeee           y salvate-e-eee


                Bm
e|--2---------------------2-----|
b|--3---------------3-----------|
g|--4-------------------4-------|
D|--4—-----------4--------------|
A|--2---------------------------|
E|--2---------------------------|
    Se disputan territorios

              G
e|--3--------------------3------|
b|--3----------------3-----3----|
g|--4--------------4---4-----4--|
D|--5------------5--------------|
A|--5---------------------------|
E|--3---------------------------|
    Conquistados y el sacrificio


    D       Dsus4       D       Dm  
e|-------2---3-------2-------|
b|----3----------3------3----|
g|---2-2---2---2---2—-2---2--| (x2)
D|--0------------------------|
A|---------------------------|
E|---------------------------|
   Eres tuuuuuuuu (Se repite 2 veces)

Final:
      A5        G5
e|--x-x-x-x-x-x-x-x|
b|--x-x-x-x-x-x-x-x|
g|--x-x-x-x-x-x-x-x|
D|--7-7-7-7-7-7/5-x|              
A|--7-7-7-7-7-7/5-x|    
E|--5-5-5-5-5-5/3-x|


e|--5---------5----------|
b|----6-5-------6-5------|
g|--------7---------7~---|
D|-----------------------|
A|-----------------------|
E|-----------------------|





Comments


Popular La Ley tabs & chords
Aqui Bass Tabs
Angie Chords
Ciertos Civiles Chords
Al Final 2 Tabs
Aqui 1 Tabs
Dia Cero 2 Tabs
Tierra Tabs
Decadencia Ukulele
Doble Opuesto Ukulele
Te Necesito Ukulele


Song lyrics



↑ Back to top | Tablatures and chords are parodies/interpretations of the original songs. You may use it for private study, scholarship, research or language learning purposes only
© 2014 AZChords.com Contact us | Privacy policy | DMCA | Add/correct tabs | Request tabs | Top 50 tabs