» » »

Lake Of Tears, Return Of Ravens Tabs (ver.1)

Artists:  A B C D E F G H I J K L M N O P Q R S T U V W X Y Z # 

Return Of Ravens Tabs (ver.1)

Lake Of Tears Tabs
 Rating:
4/5 (4 votes)
Return Of Ravens lessons Tabs too difficult? Try these video lessons and learn fast
1
                
Standard Tuning

This song's actual guitar part is pretty simple, so I went
ahead and transcribed the orchestral synth parts that play
with the chorus. Hope you enjoy it.

Main Riff: (Verse and chorus)

|---------------------------------------------------------|
|---------------------------------------------------------|
|---------------------------------------------------------|
|--5---------------5--3-------3--5------------------------|
|--5---------------5--3-------3--5------------------------|
|--3---------------3--1-------1--3------------------------|

|---------------------------------------------------------|
|---------------------------------------------------------|
|----------------------------------------------------3----|
|--5--3-------3--5------------5-8-------8--3---------3----|
|--5--3-------3--5------------5-8-------8--3---------1----|
|--3--1-------1--3------------3-6-------6--1--------------|

Pre Chorus Riff: (And the rains are coming closer. . .)

|---------------------------------------------------------|
|---------------------------------------------------------|
|---------------------------------------------------------|
|--5---------------5--3-------3-8-------------------------|
|--5---------------5--3-------3-8-------------------------|
|--3---------------3--1-------1-6-------------------------|

|---------------------------------------------------------|
|---------------------------------------------------------|
|---------------------------------------------------------|
|--8--3------------3--5-----------5--3-------3-8----------|
|--8--3------------3--5-----------5--3-------3-8----------|
|--6--1------------1--3-----------3--1-------1-6----------|



|---------------------------------------------------------|
|---------------------------------------------------------|
|---------------------------------------------------------|
|--8--3------3--5-----------------------------------------|
|--8--3------3--5-----------------------------------------|
|--6--1------1--3-----------------------------------------|
                      (To Chorus: Main Riff)

Transcribed Synthetic Orchestra part:

|---------------------------------------------------------|
|---------------------------------------------------------|
|---------------------------------------------------------|
|--8------7------3~----------8--------7-------3~----------|
|---------------------------------------------------------|
|---------------------------------------------------------|

|---------------------------------------------------------|
|---------------------------------------------------------|
|---------------------------------------------------------|
|--8------12-----8------3~-------12------8------3~--------|
|---------------------------------------------------------|
|---------------------------------------------------------|
            
Submit corrections

comments powered by Disqus
↑ Back to top | Lake Of Tears Tabs for Return Of Ravens. Lyrics for acoustic guitar and electric guitar. 1 Tablatures and chords are parodies/interpretations of the original songs. You may use it for private study, scholarship, research or language learning purposes only