» » »

Lake Of Tears, Headstones Bass tabs (ver.1)

Artists:  A B C D E F G H I J K L M N O P Q R S T U V W X Y Z # 

Headstones Bass tabs (ver.1)

Lake Of Tears Tabs
 Rating:
4/5 (4 votes)
Headstones lessons Tabs too difficult? Try these video lessons and learn fast
1
                standard tuning

Basic song easy to play enjoy
                                 2x                       3x
G||------|------||-------|-------||------||-------|-------||------|------|
D||------|------||*------|------*||------||*------|------*||------|------|
A||------|------||*------|------*||------||*------|------*||------|------|
E||------|------||-------|-------||------||-------|-------||------|------|



------|------|------||--------------------|---------------------||
------|------|------||*-------------------|--------------------*||
------|------|------||*-------------------|--1-----------------*||
------|------|------||---3----------------|-----------1---------||


                                          3x
--------------------|---------------------||-----------------------|
*-------------------|--------------------*||-------------------5-5-|
*-------------------|--1-----------------*||--1------1--3----------|
---3----------------|-----------1---------||-----------------------|



---------------------|---------------------|---------------------|
---------------------|---------------3/5---|---------------------|
--1-------1-1--------|--3------------------|--1-------1-1--------|
---------------------|---------------------|---------------------|


                                                                  3x
----------------------||--------------------|---------------------||
----------------------||*-------------------|--------------------*||
--3------------15/-3--||*-------------------|--1-----------------*||
----------------------||---3----------------|-----------1---------||



--------------------||--------------------|---------------------||
--------------------||*-------------------|--------------------*||
--1------3----------||*-------------------|--1-----------------*||
--------------------||---3----------------|-----------1---------||


                                          3x
--------------------|---------------------||-----------------------|
*-------------------|--------------------*||-------------------5-5-|
*-------------------|--1-----------------*||--1------1--3----------|
---3----------------|-----------1---------||-----------------------|



---------------------|---------------------|---------------------|
---------------------|---------------3/5---|---------------------|
--1-------1-1--------|--3------------------|--1-------1-1--------|
---------------------|---------------------|---------------------|


                                                                  2x
----------------------||--------------------|---------------------||
----------------------||*-------------------|--------------------*||
--3------------15/-3--||*-------------------|--1-----------------*||
----------------------||---3----------------|-----------1---------||



-------------------|------------------|------------------|------------------|
-------------------|------------------|------------------|------------------|
-------------------|------------------|------------------|------------------|
--3----------------|------------------|------------------|------------------|



------------------|---------------------|--------------------|
------------------|---------------------|--------------------|
------------------|---------------------|--1------3----------|
------------------|--3------1--------1--|--------------------|



---------------------|--------------------|---------------------|
---------------------|--------------------|---------------------|
---------------------|--1------3----------|---------------------|
--3------1--------1--|--------------------|--3------1--------1--|



--------------------|---------------------|--------------------|
--------------------|---------------------|--------------------|
--1------3----------|---------------------|--1------3----------|
--------------------|--3------1--------1--|--------------------|



---------------------|--------------------|---------------------|
---------------------|--------------------|---------------------|
---------------------|--1------3----------|---------------------|
--3------1--------1--|--------------------|--3------1--------1--|



--------------------|---------------------|--------------------|
--------------------|---------------------|--------------------|
--1------3----------|---------------------|--1------3----------|
--------------------|--3------1--------1--|--------------------|



---------------------|--------------------||--------------------|
---------------------|--------------------||*-------------------|
---------------------|--1------3----------||*-------------------|
--3------1--------1--|--------------------||---3----------------|


                     3x
---------------------||--------------------||--------------------|
--------------------*||--------------------||*-------------------|
--1-----------------*||--1------3----------||*-------------------|
-----------1---------||--------------------||---3----------------|


                     2x
---------------------||-------------------|--------------------|
--------------------*||-------------------|--------------------|
--1-----------------*||-------------------|--1------3----------|
-----------1---------||--3----------------|--------------------|



------------------|------------------||
------------------|------------------||
------------------|------------------||
------------------|------------------||
            
Submit corrections

comments powered by Disqus
↑ Back to top | Lake Of Tears Bass for Headstones. Lyrics for acoustic guitar and electric guitar. 1 Tablatures and chords are parodies/interpretations of the original songs. You may use it for private study, scholarship, research or language learning purposes only