» » »

Lake Of Tears, Can Die No More Tabs (ver.1)

Artists:  A B C D E F G H I J K L M N O P Q R S T U V W X Y Z # 

Can Die No More Tabs (ver.1)

Lake Of Tears Tabs
Rating:
0/5 (0 votes)
Hard to play? Try these video lessons and learn fast.
                


-------------------------|----------------------------------------------------
-------------------------|----------------------------------------------------
-------------------------|----------------------------------------------------
-7-----5----7-----5--3---|--2--0----------------------------------------------
-7-----5----7-----5--3---|--2--0----------------------------------------------
-7-----5----7-----5--3---|--2--0----------------------------------------------
 Intro and Verse           bridge to chorus                                   

-------------------|----------------------------------------------------------
-------------------|----------------------------------------------------------
-------------------|----------------------------------------------------------
--7-7-7-7-5-5-5-5--|-7-7-7-7-5-5-3-3------------------------------------------
--7-7-7-7-5-5-5-5--|-7-7-7-7-5-5-3-3------------------------------------------
--7-7-7-7-5-5-5-5--|-7-7-7-7-5-5-3-3------------------------------------------
  chorus      x 3   fourth time play
            

comments powered by Disqus
↑ Back to top | Lake Of Tears Tabs for Can Die No More. Lyrics for acoustic guitar and electric guitar. Tablatures and chords are parodies/interpretations of the original songs. You may use it for private study, scholarship, research or language learning purposes only