» » »

Twenty - Seven Bass tabs (ver.1)

Artists:  A B C D E F G H I J K L M N O P Q R S T U V W X Y Z # 

Twenty - Seven Bass tabs (ver.1)

Lagwagon
Rating:
0/5 (0 votes)

Hard to play? Try these video lessons and learn fast.
                                               TWENTY SEVEN - LAGWAGON	

fill part I didnt figure out, or the very end, but this part here is about the
whole song.  Enjoy.  If there is an error or you know the rest, email it to me.

INTRO:
G|---------------------------------------------------------------------------|
D|---------------------------------------------------------------------------|
A|---5-----2--0--------------------------------------------------------------|
E|------2--------3-----------------------------------------------------------|

PART 1
G|---------------------------------------------------------------------------|
D|---------------------------------------------------------------------------|
A|--5>------2--0--5----------------------------------------------------------|
E|------2>-----------5--3>---------------------------------------------------|

PART 2
G|---------------------------------------------------------------------------|
D|---------------------------------------------------------------------------|
A|--5>--0>-------------------------------------------------------------------|
E|----------0>--3>--5>-------------------------------------------------------|
            
Hard to play? Try these video lessons and learn fast. | Correct




comments powered by Disqus
↑ Back to top | Tablatures and chords are parodies/interpretations of the original songs. You may use it for private study, scholarship, research or language learning purposes only