» » »

Lagwagon, Today Chords (ver.1)

Artists:  A B C D E F G H I J K L M N O P Q R S T U V W X Y Z # 

Today Chords (ver.1)

Lagwagon Tabs
 Rating:
4/5 (4 votes)
Today lessons Tabs too difficult? Try these video lessons and learn fast
                Written by Lagwagon

This is a great song by one of my favorite punk bands, Lagwagon. It's a 
perfect combination of punk and ska.
Anyway, here it is: 

[Intro]
E--------------------
B--------------------
G--------------------
D--2---6---2---4-----
A--2---6---2---4-----
E--0---4---0---2-----
   E5  G#5 E5  F#5

The lead guitar plays these riffs over the chords, which are played by 
the rhythym guitar: (This is played 2x)
   B5              G#5             E5
E-----------------------------------------------------
B------------------4-4-4-5-5-4---------------0-0------
G--8-8-8-9-9-8-----------------6---1-1-1-3-3----------
D--------------11-------------------------------------
A-----------------------------------------------------
E-----------------------------------------------------
(con't.)
  F#5
E-----------------
B------------2-2--
G--3-3-3-4-4------
D-----------------
A-----------------
E-----------------

[Verse] (played with ska upstrokes)
   B   G#  E   F#    B   G#  E
E--7---4---4---6-----7---4---4----
B--7---4---5---7-----7---4---5----
G--8---5---4---6-----8---5---4----
D--9---6-------------9---6--------
A---------------------------------
E---------------------------------

[Chorus]
E------------------------------------
B------------------------------------
G-------4---------4----8----6--------
D--4----4----6----4----8----6----2---
A--4----2----6----2----6----4----2---
E--2---------4-------------------0---
   F#5  B5   G#5  B5   D#5  C#5  E5

[Bridge] (after 2nd chorus)
E-------------------------------------
B-------------------------------------
G--------------------8---6---9---11---
D---6---2---6---7----8---6---9---11---(back to verse)
A---6---2---6---7----6---4---7----9---
E---4---0---4---5---------------------
    G#  E   G#  A    D#  C#  Eii  F#ii

Lyrics:
As you expect here are the keys, so come and go as you please. What's 
mine seems to be yours, welcome to my drawers. Today I heard a funny 
thing: They were happy you were clean.  You were headed for success in 
the mountains of excess.
Today you fail them, tomorrow more.
Maybe I'll lend you some more cash, don't have to pay it back. I can 
depend on you depending on everyone. Why am I guilty of my bending back, 
over to breaking the object of some desire.
Too late, too late. Today I'm saving you. I must have finished my last care,
with that beer, with some idea I might win, while losing, that's some 
mentality I have, to finish talking. I'm finished talking. I'm finished 
talking.
Today I heard a funny thing: They were happy you were clean. And you 
won't be looking back, to the one who helped you pack.

That's it. I hope you like the transcription. E-mail me if you have any 
comments, changes, or anything else.

Luke
            
Submit corrections

comments powered by Disqus
↑ Back to top | Lagwagon Chords for Today. Lyrics for acoustic guitar and electric guitar. Tablatures and chords are parodies/interpretations of the original songs. You may use it for private study, scholarship, research or language learning purposes only