» » »

Lagwagon, Sleep Bass tabs (ver.1)

Artists:  A B C D E F G H I J K L M N O P Q R S T U V W X Y Z # 

Sleep Bass tabs (ver.1)

Lagwagon Tabs
Rating:
0/5 (0 votes)
Sleep lessons Tabs too difficult? Try these video lessons and learn fast
                                        SLEEP   LAGWAGON   


INTRO
G]---------------]
D]-7-6-----------]
A]-----7-6-4-----]
E]-----------5-7-]

VERSE
G]-----------------------------------------------------------------]
D]-7-6---------------7-6---------------7-6-------------------------]
A]-----7-6-4-------------7-6-4--------------7-6-4-3-3-2-2----------]
E]-----------5-5-7-7-----------5-5-7-7---------------------5-5-7-7-]

BRIDGE BEFORE CHORUS
G]---------------]
D]---------------]
A]-7----------7-]
E]----4-5-7---]

CHORUS
G]---------------------------------------------------------------]
D]---------------------------------------------------------------]
A]-------7-----4-------7-------------4-------7-----4-------]
E]-5-7----4-4----5-7----x-x-x-x-4-4----5-7----4-4----5-7-]

VERSE
BRIDGE
CHORUS
VERSE
BRIDGE
            
Submit corrections

comments powered by Disqus
↑ Back to top | Lagwagon Bass for Sleep. Lyrics for acoustic guitar and electric guitar. Tablatures and chords are parodies/interpretations of the original songs. You may use it for private study, scholarship, research or language learning purposes only