>
 >
Sick

Sick Guitar Tabs

Lagwagon - Sick chords, tabs, tablatures, lyrics

Guitar lessons | Add/correct | Request | Top 50 tabs Artists:  A B C D E F G H I J K L M N O P Q R S T U V W X Y Z 0-9

Sick Guitar Tabs – Lagwagon

CD, Sheet music, Poster

Do you like Sick? Share with your friends now
Bass TabsTabs

Intro & verse 
e-|----------------------------------------------|
B-|----------------------------------------------|
G-|----------------------------------------------|
D-|---9-10-----9-7-5---------7-------------------|
A-|-7-7-8-10-7-7-5-3—-7-9-10-5-55-33-------------|
E-|-5-----8--5--------5-7-8----33-11-------------|

chorus
e-|----------------------------------|
B-|----------------------------------|
G-|-5---9-----3-5---9----------------|
D-|-5-5-9-2-3-3-5-5-9-2-3------------|
A-|-3-5-7-2-3-1-3-5-7-2-3------------|
E-|---3---0-1-----3---0-1------------|

Play verse again
(this time there’s a part picked and muted, but same chords)

Then again chorus

After that play: (if I say it again can I … )
e-|---------------------|-------------------|-------------|
B-|---------------------|-------------------|-------------|
G-|--5---1010/121212—or:|-5/9--/10/12-------|-----7---5---|
D-|----2----------------|-------------------|-7-5-7-3-5-8-|
A-|--3-2-8-8-/101010----|-3/7--/8-/10-------|-7-5-5-3-3-8-|
E-|----0----------------|-------------------|-5-3---1---6-|

e-|----------------------------------------------------------|
B-|----------------------------------------------------------|
G-|--------10-9-10-14-15-14-12-14-12-10-9-10----9-9----------|
D-|-7-9-10-10-9-10-14-15-14-12-14-12-10-9-10-10-9-9---2x-----|
A-|-7-9-10--8-7--8-12-13-12-10-12-10--8-7--8-10-7-7----------|
E-|-5-7--8------------------------------------8--------------|

e-|------------------------------------------------------------|
B-|------------------------------------------------------------|
G-|--------10-9-10-14-15-14-12-14-12-14/12/10/14/11------------|
D-|-7-9-10-10-9-10-14-15-14-12-14-12---------------------------|
A-|-7-9-10--8-7--8-12-13-12-10-12-10-12/10/-8/12/9-------------|
E-|-5-7--8-----------------------------------------------------|

Play verse again 1,5x and repeat this part till the end (silence lies empty,…)
e-|------------------------------------------------------|
B-|------------------------------------------------------|
G-|-----------9-9-9-9-10-10-10-10------------------------|
D-|---7-7-7-7-9-9-9-9-10-10-10-10-10-10-10-10------------|
A-|---7-7-7-7-7-7-7-7--8--8--8--8-10-10-10-10------------|
E-|---5-5-5-5----------------------8--8--8--8------------|





Comments


Popular Lagwagon tabs & chords
Give It Back 1 Bass Tabs
Lazy 1 Bass Tabs
Train Bass Tabs
Violins 2 Bass Tabs
Automatic Tabs
Brown Eyed Girl Tabs
Choke Tabs
Coconut Live Tabs
E. Dagger Tabs
Leave The Light On Tabs


Song lyrics



↑ Back to top | Tablatures and chords are parodies/interpretations of the original songs. You may use it for private study, scholarship, research or language learning purposes only
© 2014 AZChords.com Contact us | Privacy policy | DMCA | Add/correct tabs | Request tabs | Top 50 tabs