» » »

Sad Astronaut Tabs (ver.2)

Artists:  A B C D E F G H I J K L M N O P Q R S T U V W X Y Z # 

Sad Astronaut Tabs (ver.2)

Lagwagon
Rating:
0/5 (0 votes)

Hard to play? Try these video lessons and learn fast.
                (A tribute to Derrick Plourde - R.I.P.)

Sorry we didn't put the different guitar parts in, this should be right. It sounds just 
 Listen to the actual song the first couple of times while looking at the tab.  It will 
help! Enjoy!

~~ Vibrate
P = Pull Off
H = Hammer On

E|----0--------------------------1----1----1----1------|
B|----1--------------------------1----1----1----1------|
G|----2--------------------------2----2p---0----2h-----|
D|----2--------------------------3----3----3----3------|
A|----0------------------------------------------------|
E|----0------------------------------------------------|
As you sat on the                bed

E|----0--------------------3--------------------------|
B|----1--------------------0--------------------------|
G|----0--------------------0--------------------------|
D|----2--------------------0--------------------------|
A|----3--------------------2--------------------------|
E|----0--------------------3--------------------------|
      Moments from your    end                  Incon-

(Play this how you want.. you don’t have to pull off and hammer if you don’t want but it 
good)
E|----0--------------------------1----1----1----1------|
B|----1--------------------------1----1----1----1------|
G|----2--------------------------2----2p---0----2h-----|
D|----2--------------------------3----3----3----3------|
A|----0------------------------------------------------|
E|----0------------------------------------------------|
     -cievable                   dread

E|----0--------------------3--------------------------|
B|----1--------------------0--------------------------|
G|----0--------------------0--------------------------|
D|----2--------------------0--------------------------|
A|----3--------------------2--------------------------|
E|----0--------------------3--------------------------|
      Inches from your     head				I


For the first G major, do a slow strum
E|----1--------------------3---------------------------|
B|----1--------------------0---------------------------|
G|----2--------------------0---------------------------|
D|----3--------------------0---------------------------|
A|----3--------------------2---------------------------|
E|----1--------------------3---------------------------|
Can’t bear to              imagine you			In

E|----0--------------------------1----1----1----1------|
B|----1--------------------------1----1----1----1------|
G|----2--------------------------2----2p---0----2h-----|
D|----2--------------------------3----3----3----3------|
A|----0------------------------------------------------|
E|----0------------------------------------------------|
That horror 		        scene


E|----0--------------------3--------------------------|
B|----1--------------------0--------------------------|
G|----0--------------------0--------------------------|
D|----2--------------------0--------------------------|
A|----3--------------------2--------------------------|
E|----0--------------------3--------------------------|
	One to sad to        be				In my

E|----0--------------------------1----1----1----1------|
B|----1--------------------------1----1----1----1------|
G|----2--------------------------2----2p---0----2h-----|
D|----2--------------------------3----3----3----3------|
A|----0------------------------------------------------|
E|----0------------------------------------------------|
	Minds eye I am  		   there

E|----0--------------------3--------------------------|
B|----1--------------------0--------------------------|
G|----0--------------------0--------------------------|
D|----2--------------------0--------------------------|
A|----3--------------------2--------------------------|
E|----0--------------------3--------------------------|
	Embracing you so 	   scared

For the first G major, do a slow strum
E|----1--------------------3---------------------------|
B|----1--------------------0---------------------------|
G|----2--------------------0---------------------------|
D|----3--------------------0---------------------------|
A|----3--------------------2---------------------------|
E|----1--------------------3---------------------------|
Now you kill me too …………………you killed me to.

(Bridge thing)
E|----0--------------------0---------------------------|
B|----1--------------------0---------------------------|
G|----0--------------------0---------------------------|
D|----2--------------------2---------------------------|
A|----3--------------------2---------------------------|
E|----0--------------------0---------------------------|
	Decidedly willing to die for you

E|----0--------------------------1----1----1----1------|
B|----1--------------------------1----1----1----1------|
G|----2--------------------------2----2p---0----2h-----|
D|----2--------------------------3----3----3----3------|
A|----0------------------------------------------------|
E|----0------------------------------------------------|
	Absolutely willing to 	   cry for you

E|----0------------------------0---------------------------|
B|----1------------------------0---------------------------|
G|----0------------------------0---------------------------|
D|----2------------------------2---------------------------|
A|----3------------------------2---------------------------|
E|----0------------------------0---------------------------|
	I’ll at ease saying good-bye to you
E|----0------------------------1-------------------------|
B|----1------------------------1-------------------------|
G|----2------------------------2-------------------------|
D|----2------------------------3-------------------------|
A|----0--------------------------------------------------|
E|----0--------------------------------------------------|
	A part of me will never know

E|----0------------------------1-------------------------|
B|----1------------------------1-------------------------|
G|----2------------------------2-------------------------|
D|----2------------------------3-------------------------|
A|----0--------------------------------------------------|
E|----0--------------------------------------------------|

In the background of the bridge thing… a second guitar plays this 2X
E|--------------------------------------------------------|
B|-----------------5--------------------------------------|
G|----5~~------5-7---4~~----------4-5-7-2~~------2-4-5-4~~|
D|--------------------------------------------------------|
A|--------------------------------------------------------|
E|--------------------------------------------------------|


Electric Part

> = Repeat Chord (its just estimated)
* = Palm Mute
E|-------------------------------------------------------|
B|-------------------------------------------------------|
G|----------------------5--------------------------------|
D|----7--------3--------5--------5-----------------------|
A|----7--------3--------3--------5-----------------------|
E|----5--------1-----------------3-----------------------|
Verse 1: I am there again, intervals of red
Verse 2: I say words like foolish son, God what have you done?

E|-------------------------------------------------------|
B|-------------------------------------------------------|
G|----------------------5--------9-----------------------|
D|----7--------3--------5--------9-----------------------|
A|----7--------3--------3--------7-----------------------|
E|----5--------1-----------------------------------------|
Verse 1: An accomplice to, things I couldn’t do.
Verse 2: I’m a thin blue cliché, hopelessly.

E|-------------------------------------------------------|
B|-------------------------------------------------------|
G|----*-----*-*-----*-*-----*-*-------5----9-------------|
D|----3-3---3-3-3---3-3-3---3-3-3-----5----9-------------|
A|----3-3---3-3-3---3-3-3---3-3-3-----3----7-------------|
E|----1-1---1-1-1---1-1-1---1-1-1------------------------|
	I’m   a    mouthful    of doubtful

E|-------------------------------------------------------|
B|-------------------------------------------------------|
G|----10-9-7-5---4----------10-9-5-5-7-7-5---------------|
D|----10-9-7-5>>-4>>>>>>>>--10—9-5-5-7-7-5>>>>>>>>-------|
A|-----8-7-5-3---2-----------8-7-3-3-5-5-3---------------|
E|-------------------------------------------------------|
Decidedly willing to lie for you.  Say again willing to cry for you

E|-------------------------------------------------------|
B|-------------------------------------------------------|
G|----10-10--9----7----5-5-4-----2-----3-----5--------5--| (hollow
D|----10-10—-9>>>-7>>>-5-5-4-----2>>>>-3>>>>-5>>>>>>>-5--|	Strum the
A|-----8--8--7----5----3-3-2-----0-----1-----3--------3--| Last Chord)
E|-------------------------------------------------------|
Finally saying goodbye to you    A part of you I’ll never know

E|--------------------------------------------------------|
B|--------------------------------------------------------|
G|-------------------------10-10---10-10-10---9-9---9-9-9-|
D|--2-2-2-2-2-2--7----------x--x----x--x--x---x-x---x-x-x-|
A|--2-2-2-2-2-2—-7>>>>>>>>--8--8----8--8--8---7-7---7-7-7-|
E|----3---3---3--5----------------------------------------|
Looking through the spyglass in a punctured sky, while your garden

E|-------------------------------------------------------|
B|-------------------------------------------------------|
G|-------------------------------------------------------|
D|--3----------------------------------------------------|
A|--3>>>>>>>>>>>>>>--------------------------------------|
E|--1----------------------------------------------------|
    died

E|--------------------------------------------------------|
B|--------------------------------------------------------|
G|-------------------------10-10---10-10-10---9-9---9-9-9-|
D|--2-2-2-2-2-2--7----------x--x----x--x--x---x-x---x-x-x-|
A|--2-2-2-2-2-2—-7>>>>>>>>--8--8----8--8--8---7-7---7-7-7-|
E|----3---3---3--5----------------------------------------|
You couldn’t see the sky for your fallen stars. Endless in your

E|-------------------------------------------------------|
B|-------------------------------------------------------|
G|--10---------------------------------------------------|
D|--10>>>>>>>>-8---------5-------------------------------|
A|---8---------8>>>>>>>>-5>>>>>>>>-----------------------|
E|-------------5---------3-------------------------------|
   Arms.       You were still alive, even as the sad astronaut

E|-------------------------------------------------------|
B|-------------------------------------------------------|
G|--10-9-7-5---4-----------10-9-5-5-7-7-5----------------|
D|--10-9-7-5>>-4>>>>>>>>>--10-9-5-5-7-7-5>>>>>>>>--------|
A|---8-7-5-3---2------------8-7-3-3-5-5-5----------------|
E|-------------------------------------------------------|


E|--------------------------------------------------------|
B|--------------------------------------------------------|
G|---10-10—-9---7---5---4---10----9----7----5-4-5---------|
D|---10-10—-9>>-7>>-5>>-4---10>>>-9>>>-7>>>-5-4-5(Hold)---|
A|----8--8--7---5---3---2----8----7----5----3-2-3---------|
E|--------------------------------------------------------|
            
Hard to play? Try these video lessons and learn fast. | Correct




comments powered by Disqus
↑ Back to top | Tablatures and chords are parodies/interpretations of the original songs. You may use it for private study, scholarship, research or language learning purposes only