» » »

Over The Hill Tabs (ver.1)

Artists:  A B C D E F G H I J K L M N O P Q R S T U V W X Y Z # 

Over The Hill Tabs (ver.1)

Lagwagon
Rating:
0/5 (0 votes)

Hard to play? Try these video lessons and learn fast.
                


This song is in the same key as their famous
"Know It All", I think it's B or something...
who cares, just enjoy the song!


   B        Ab       Db       B
|--------------------------------------|
|--------------------------------------|
|--4-4-4-4-----------6-6-6-6--4-4-4-4--|
|--4-4-4-4--6-6-6-6--6-6-6-6--4-4-4-4--|
|--2-2-2-2--6-6-6-6--4-4-4-4--2-2-2-2--|
|-----------4-4-4-4--------------------|

   B        Ab       E        B
|--------------------------------------|
|--------------------------------------|
|--4-4-4-4--------------------4-4-4-4--|
|--4-4-4-4--6-6-6-6--2-2-2-2--4-4-4-4--|
|--2-2-2-2--6-6-6-6--2-2-2-2--2-2-2-2--|
|-----------4-4-4-4--0-0-0-0-----------|

   B        Ab       Db       B
|--------------------------------------|
|--------------------------------------|
|--4-4-4-4-----------6-6-6-6--4-4-4-4--|
|--4-4-4-4--6-6-6-6--6-6-6-6--4-4-4-4--|
|--2-2-2-2--6-6-6-6--4-4-4-4--2-2-2-2--|
|-----------4-4-4-4--------------------|

   B        Ab       Db       
|-------------------------------------|
|-------------------------------------|
|--4-4-4-4-----------6-6-6-6-6-6-6-6--|
|--4-4-4-4--6-6-6-6--6-6-6-6-6-6-6-6--|
|--2-2-2-2--6-6-6-6--4-4-4-4-4-4-4-4--|
|-----------4-4-4-4-------------------|

   B        F#           Eb       E
|------------------------------------------|
|------------------------------------------|
|-----------11-11-11-11--8-8-8-8--9-9-9-9--|
|--9-9-9-9--11-11-11-11--8-8-8-8--9-9-9-9--|
|--9-9-9-9---9--9--9--9--6-6-6-6--7-7-7-7--|
|--7-7-7-7---------------------------------|

   B        F#           Eb         E      B   A
|--------------------------------------------------|
|--------------------------------------------------|
|-----------11-11-11-11--8-8-8-8-8--9-~-~----------|
|--9-9-9-9--11-11-11-11--8-8-8-8-8--9-~-~--9-/-11--|
|--9-9-9-9---9--9--9--9--6-6-6-6-6--7-~-~--x-/--x--|
|--7-7-7-7---------------------------------7-/--9--|

   B        C#       Eb       E
|--------------------------------------|
|--------------------------------------|
|-----------6-6-6-6--8-8-8-8--9-9-9-9--|
|--9-9-9-9--6-6-6-6--8-8-8-8--9-9-9-9--|
|--9-9-9-9--4-4-4-4--6-6-6-6--7-7-7-7--|
|--7-7-7-7-----------------------------|

   B        Ab       C#       B
|--------------------------------------|
|--------------------------------------|
|--------------------6-6-6-6--4-~-~-~--|
|--9-9-9-9--6-~-~-~--6-6-6-6--4-~-~-~--|
|--9-9-9-9--6-~-~-~--4-4-4-4--2-~-~-~--|
|--7-7-7-7--4-~-~-~--------------------|

   B        Ab       Db       B
|--------------------------------------|
|--------------------------------------|
|--4-4-4-4-----------6-6-6-6--4-4-4-4--|
|--4-4-4-4--6-6-6-6--6-6-6-6--4-4-4-4--|
|--2-2-2-2--6-6-6-6--4-4-4-4--2-2-2-2--|
|-----------4-4-4-4--------------------|

   B        Ab       E        B
|--------------------------------------|
|--------------------------------------|
|--4-4-4-4--------------------4-4-4-4--|
|--4-4-4-4--6-6-6-6--2-2-2-2--4-4-4-4--|
|--2-2-2-2--6-6-6-6--2-2-2-2--2-2-2-2--|
|-----------4-4-4-4--0-0-0-0-----------|

   B        Ab       Db       B
|--------------------------------------|
|--------------------------------------|
|--4-4-4-4-----------6-6-6-6--4-4-4-4--|
|--4-4-4-4--6-6-6-6--6-6-6-6--4-4-4-4--|
|--2-2-2-2--6-6-6-6--4-4-4-4--2-2-2-2--|
|-----------4-4-4-4--------------------|

   B        Ab       Db       
|-------------------------------------|
|-------------------------------------|
|--4-4-4-4-----------6-6-6-6-6-6-6-6--|
|--4-4-4-4--6-6-6-6--6-6-6-6-6-6-6-6--|
|--2-2-2-2--6-6-6-6--4-4-4-4-4-4-4-4--|
|-----------4-4-4-4-------------------|

   B        F#           Eb       E
|------------------------------------------|
|------------------------------------------|
|-----------11-11-11-11--8-8-8-8--9-9-9-9--|
|--9-9-9-9--11-11-11-11--8-8-8-8--9-9-9-9--|
|--9-9-9-9---9--9--9--9--6-6-6-6--7-7-7-7--|
|--7-7-7-7---------------------------------|

   B        F#           Eb         E      B   A
|--------------------------------------------------|
|--------------------------------------------------|
|-----------11-11-11-11--8-8-8-8-8--9-~-~----------|
|--9-9-9-9--11-11-11-11--8-8-8-8-8--9-~-~--9-/-11--|
|--9-9-9-9---9--9--9--9--6-6-6-6-6--7-~-~--x-/--x--|
|--7-7-7-7---------------------------------7-/--9--|

   B        C#       Eb       E
|--------------------------------------|
|--------------------------------------|
|-----------6-6-6-6--8-8-8-8--9-9-9-9--|
|--9-9-9-9--6-6-6-6--8-8-8-8--9-9-9-9--|
|--9-9-9-9--4-4-4-4--6-6-6-6--7-7-7-7--|
|--7-7-7-7-----------------------------|

   B        Ab       C#       B
|--------------------------------------|
|--------------------------------------|
|--------------------6-6-6-6--4-~-~-~--|
|--9-9-9-9--6-~-~-~--6-6-6-6--4-~-~-~--|
|--9-9-9-9--6-~-~-~--4-4-4-4--2-~-~-~--|
|--7-7-7-7--4-~-~-~--------------------|

|-----------------------------------|
|-----------------------------------|
|-----------------------------------|
|--9--8--6-~-~-~--8--6--4--6--8--8--|
|-----------------------------------|
|-----------------------------------|

|--------------------------------|
|--------------------------------|
|--------------------------------|
|--9--8--6-~-~-~--8--6--4-~-~-~--|
|--------------------------------|
|--------------------------------|

|-----------------------------------|
|-----------------------------------|
|-----------------------------------|
|--9--8--6-~-~-~--8--6--4--6--8--8--|
|-----------------------------------|
|-----------------------------------|

|--------------------------------|
|--------------------------------|
|--------------------------------|
|--9--8--6-~-~-~--8--6--4-~-~-~--|
|--------------------------------|
|--------------------------------|

   B        Ab       Db       B
|--------------------------------------|
|--------------------------------------|
|--4-4-4-4-----------6-6-6-6--4-4-4-4--|
|--4-4-4-4--6-6-6-6--6-6-6-6--4-4-4-4--|
|--2-2-2-2--6-6-6-6--4-4-4-4--2-2-2-2--|
|-----------4-4-4-4--------------------|

   B        Ab       E        B
|--------------------------------------|
|--------------------------------------|
|--4-4-4-4--------------------4-4-4-4--|
|--4-4-4-4--6-6-6-6--2-2-2-2--4-4-4-4--|
|--2-2-2-2--6-6-6-6--2-2-2-2--2-2-2-2--|
|-----------4-4-4-4--0-0-0-0-----------|

   B        Ab       Db       B
|--------------------------------------|
|--------------------------------------|
|--4-4-4-4-----------6-6-6-6--4-4-4-4--|
|--4-4-4-4--6-6-6-6--6-6-6-6--4-4-4-4--|
|--2-2-2-2--6-6-6-6--4-4-4-4--2-2-2-2--|
|-----------4-4-4-4--------------------|

   B        Ab       Db       
|-------------------------------------|
|-------------------------------------|
|--4-4-4-4-----------6-6-6-6-6-6-6-6--|
|--4-4-4-4--6-6-6-6--6-6-6-6-6-6-6-6--|
|--2-2-2-2--6-6-6-6--4-4-4-4-4-4-4-4--|
|-----------4-4-4-4-------------------|

   B        F#           Eb       E
|------------------------------------------|
|------------------------------------------|
|-----------11-11-11-11--8-8-8-8--9-9-9-9--|
|--9-9-9-9--11-11-11-11--8-8-8-8--9-9-9-9--|
|--9-9-9-9---9--9--9--9--6-6-6-6--7-7-7-7--|
|--7-7-7-7---------------------------------|

   B        F#           Eb         E      B   A
|--------------------------------------------------|
|--------------------------------------------------|
|-----------11-11-11-11--8-8-8-8-8--9-~-~----------|
|--9-9-9-9--11-11-11-11--8-8-8-8-8--9-~-~--9-/-11--|
|--9-9-9-9---9--9--9--9--6-6-6-6-6--7-~-~--x-/--x--|
|--7-7-7-7---------------------------------7-/--9--|

   B        C#       Eb       E
|--------------------------------------|
|--------------------------------------|
|-----------6-6-6-6--8-8-8-8--9-9-9-9--|
|--9-9-9-9--6-6-6-6--8-8-8-8--9-9-9-9--|
|--9-9-9-9--4-4-4-4--6-6-6-6--7-7-7-7--|
|--7-7-7-7-----------------------------|

   B        Ab       C#       B
|--------------------------------------|
|--------------------------------------|
|--------------------6-6-6-6--4-~-~-~--|
|--9-9-9-9--6-~-~-~--6-6-6-6--4-~-~-~--|
|--9-9-9-9--6-~-~-~--4-4-4-4--2-~-~-~--|
|--7-7-7-7--4-~-~-~--------------------|
            
Hard to play? Try these video lessons and learn fast. | Correct




comments powered by Disqus
↑ Back to top | Tablatures and chords are parodies/interpretations of the original songs. You may use it for private study, scholarship, research or language learning purposes only