>
 >
No One Like You

No One Like You Bass Tabs

Lagwagon - No One Like You chords, tabs, tablatures, lyrics

Guitar lessons | Add/correct | Request | Top 50 tabs Artists:  A B C D E F G H I J K L M N O P Q R S T U V W X Y Z 0-9

No One Like You Bass Tabs – Lagwagon

CD, Sheet music, Poster

Do you like No One Like You? Share with your friends now
Bass TabsBass Tabs v2Bass Tabs v3Tabs
                                 NO ONE - Lagwagon


Intro Guit 1x + 1x base 
G|---------------
D|---------------
A|--5------------
E|-----6--8--5---

Verse 1 (Labors of commitments...)
G|-------------------------------------------|
D|-------------------------------------------|
A|--5~~-----5-----8-8---------5~~------------|
E|------6~~---6-6-----8-8-8-8-----6-6-6-6----|

Verse 2/2x (Principales, purpose, tradition...)
G|---------------------------------------------------------------------|
D|---------------------------------------------------------------------|
A|--3-3-3-3-3-3-3-3-3--------------------------------------------------|
E|--------------------5-5-5-5-5-5-5-5-6-6-6-6-6-6-6-6-3-3-3-3-3-3-3-3--|

Chorus 1x (Blind in rage, a war...)
G|----------------------------------------------------------------------
D|----------------------------------------------------------------------
A|---------5-5-5-5-5------------------------------------3-3-3-5-5-5-5-5-
E|--1-1-1-------------7-7-7-5-5-5-5-5-X-6-6-6-1-1-1-1-1-----------------

G|--------------------------------------------------------------------------|
D|--------------------------------------------------------------------------|
A|--1-1-1-5-5-5-5-5-8-8-8-12-12-12-12-12-------------------3-3-3-5-5-7-7-8--|
E|---------------------------------------X-8-8-8-1-1-1-1-1------------------|

Verse 1 1x 
G|------------------------------------------------------------------------|
D|------------------------------------------------------------------------|
A|--5-5-5-5-5-5-5-5-----------------5-5-5-5-5-5-5-5-----------------10-10-|
E|------------------6-6-6-6-6-6-6-6-----------------6-6-6-6-6-6-6-6-------|

Verse 3/1x
G|-----------------------------------|----------------------------------------------|
D|-----------------------------------|----------------------------------------------|
A|--5-5-5-5---------5-5-5-5----------|--12-12-12-12-13-13-13-13-10-10-10-10-12~~~~--|
E|----------6-6-6-6---------3-3-3-3--|----------------------------------------------|

Break (2 sec)

Bridge 2x
G|------------------------------------------------------------------
D|------------------------------------------------------------------
A|--5-5-5-5-5-5-------------------------------------------------8-7-
E|--------------6-5-5-5-5-5-5-5-8-6-6-6-6-6-6-6-5-3-3-3-3-3-3-3-----

G|-------------------------------------------------------------------|
D|-------------------------------------------------------------------|
A|--5-5-5-5-5-5--------------------------------------------------8-7-|
E|--------------6-5-5-5-5-5-5-5-8-6-6-6-6-6-6-6-10-8-8-8-8-8-8-8-----|

CHORUS 1 (1X)

The end (1x)
G|------------------------------------------------------------------------|
D|------------------------------------------------------------------------|
A|--5----8-8-7-8-7--------8-8-7-8-7----5----8-8-7-8-7-------8-8-7-7---7-5-|
E|------------------8-6--------------8----------------8-6-6---------8-----|





Comments


Popular Lagwagon tabs & chords
Name Dropping Bass Tabs
Rifle Bass Tabs
Bad Moon Rising Chords
Status Pools Chords
E. Dagger Tabs
May 16 3 Tabs
May 16 5 Tabs
Mr. Coffee 1 Tabs
Rust Tabs
The Chemist Tabs


Song lyrics



↑ Back to top | Tablatures and chords are parodies/interpretations of the original songs. You may use it for private study, scholarship, research or language learning purposes only
© 2014 AZChords.com Contact us | Privacy policy | DMCA | Add/correct tabs | Request tabs | Top 50 tabs