» » »

Max Says Bass tabs (ver.1)

Artists:  A B C D E F G H I J K L M N O P Q R S T U V W X Y Z # 

Max Says Bass tabs (ver.1)

Lagwagon
Rating:
0/5 (0 votes)

Hard to play? Try these video lessons and learn fast.
                MAX SAYS by Lagwagon. Album : Blaze (2003) 
I love that slow part.. but the rythm is so hard to get.. almost 
impossible to tab it.. i didn't feel like figuring that out..
i don't think i have it figured out yet actually.. oh well, it's
awesome. Other than that an ok song, they've done better. 

# intro #   *=play 16x 
G|------------------------|------------------------|
D|------------------------|------------------------|
A|2----------666667-----4-|2----------666667--222--| 
E|---2224-4----------222--|---2224-4-------------2-| 

G|------------------------|-------------------------%-%-%---| 
D|------------------------|----------------*--------%-%-%---| 
A|2----------666667-----4-|2-----1-1--1111176-666667%-%9%---| 
E|---2224-4----------222--|---222-------------------%7%-%999| 

# part1 #   *=play 16x   $=play 8x   #=play 4x
		    x2
G|------------------|------------|---------------| 
D|-*--------#-#-#-#-|-*--------*-|-*--*--$-$-$-$-| 
A|-2--*--*-/7-7-7-9-|-2--*--*--7-|-2--6-/6-7-8-9-| 
E|----2--4----------|----2--4----|---------------| 

# part2 #   *=play 16x   $=play 8x   #=play 4x 
G|-------------------------------------------------------| 
D|------------------------*-----------------*--*---$--$--| 
A|-11--11--11-11--11--11-11-7--7--7/7--7--7-7--2-/11--9--| 
E|-------------------------------------------------------|
 
# bridge #	$=play 8x          
G|---------------------------------|---watch rythm!---| 
D|-------------------------------$-|------------------| 
A|-6--66--6667--77--7778--88--8889-|-222--------11111-| 
E|---------------------------------|----22244444------| 

# part3 #   *=play 16x   $=play 8x   #=play 4x
		    
G|------------------|--------------------|---------------| 
D|-*--------#-#-#-#-|-*--------$---------|-*--*--$-$-$-$-| 
A|-2--*--*-/7-7-7-9-|-2--*--*-/777777799-|-2--6-/6-7-8-9-| 
E|----2--4----------|----2--4------------|---------------| 

then play part2

# bridge2 #
G|-----------------------------------------| 
D|-----------------------------------------| 
A|-6--66--6667--77--7778--88--8889--99--999| 
E|-----------------------------------------| 

# part4 #    $=play 8x
G|---------------watch rythm!---| 
D|$--$--------------------------| 
A|7--42---64-$--2--4-6-7-1--2---| 
E|-----------2------------------| 

# bridge3 #    *=play 16x   $=play 8x   #=play 4x 
G|--------------------------------------------| 
D|--------------------------------------------| <-- rythm not exact! figure it out
A|-22----22---22----22------------------------| 
E|------------------------44----44---44----44-| 

G|--------------------------------------------------------------| 
D|--------------------------------------------------------------| 
A|------------1-22-22-22-22-22-22-22-44-------------------------| 
E|-22-22-22-2---------------------------44-44-44-44-44-44-22-00-| 

G|--------------------------------------------686---68--*--| 
D|-----------------------------------------------989--4/6--| 
A|-67-67-67-67-67-67-67-67-79-79-79-79-79-79---------------| 
E|-------------------------------------------------------4-| 

part5
G|------------------------------|
D|------------------*--*---$--$-| 
A|-7--7-777-7--7-7777--2-/11--9-| 
E|------------------------------| 

then play bridge2 and part4!
Done!!

Max says that this is very good.. but he'd rather listen to the rest of the cd.
            
Hard to play? Try these video lessons and learn fast. | Correct




comments powered by Disqus
↑ Back to top | Tablatures and chords are parodies/interpretations of the original songs. You may use it for private study, scholarship, research or language learning purposes only