» » »

Leave The Light On Tabs (ver.1)

Artists:  A B C D E F G H I J K L M N O P Q R S T U V W X Y Z # 

Leave The Light On Tabs (ver.1)

Lagwagon
Rating:
0/5 (0 votes)

Hard to play? Try these video lessons and learn fast.
                
*= harmonic


Verse-		         Chorus-
e|--------------------------------------------------------------------|
B|---------------------------------------------------------222--------|
G|-----------444----------44-66-------777-----44-----12-7--222--------|
D|-----------444----------------55-77-777-444-44-777-------222--------|
A|-22-4-5-11-222-2-4-5-11-22-44-55-77-555-444-22-777-10-5--000--------|
E|-33-5-6-22-----3-5-6-22-------33-55-----222----555------------------|

Second verse
e|--------------------------------------------------------------------|
B|--------------------------------------------------------------------|
G|-----------444--------444-66----------------------------------------|
D|-----------444--------444-66----------------------------------------|
A|-22-4-5-11-222-2-4--4-222-44----------------------------------------|
E|-33-5-6-22-----3-5--6-----------------------------------------------|

Solo
e|-----------------------------------10--------------7*---------------|
B|--------------------------------8-----6--764------------------------|
G|------------------4-3-6-7---764-------------754---------------------|
D|-----5-4--4-2-4-7------------------------------754------------------|
A|-5-7----------------------------------------------------------------|
E|--------------------------------------------------------------------|

   p.m------------------------|
e|--------------------------------------------------------------------|
B|--------------------------------------------------------------------|
G|--------------------------------------------------------------------|
D|---------------------4444-------------------------------------------|
A|-2222-4444-5555-1111-2222-------------------------------------------|
E|-3333-5555-6666-2222------------------------------------------------|

Outro-
e|--------------------------------------------------------------------|
B|--------------------------------------------------------------------|
G|-----1212-1111-99----1111-99-77-------------------------------------|
D|--------------------------------------------------------------------|
A|-22--1010-9-9--77-11-9-9--77-55-------------------------------------|
E|-33---------------22------------------------------------------------|

Chorus to end
            
Hard to play? Try these video lessons and learn fast. | Correct




comments powered by Disqus
↑ Back to top | Tablatures and chords are parodies/interpretations of the original songs. You may use it for private study, scholarship, research or language learning purposes only