» » »

Lagwagon, Kids In America Tabs (ver.2)

Artists:  A B C D E F G H I J K L M N O P Q R S T U V W X Y Z # 

Kids In America Tabs (ver.2)

Lagwagon Tabs
 Rating:
4/5 (4 votes)
Kids In America lessons Tabs too difficult? Try these video lessons and learn fast
                
Listen to the song to find out which parts of the whole thing are pm and which ones are not.
This tab should help to find the rhythm.
Some parts of the song are made easier ´cause i couldn´t find it out exactly. But it´s in harmony with lyrics and bass.
Have fun.


Intro

e-------------------------------------
B-------------------------------------
G-------------------------------------
D-33333333-33333333-33333333-33333333-
A-33333333-33333333-33333333-33333333-
E-11111111-11111111-11111111-11111111-


Verse 1

e-------------------------------------------------------------------------------------------
B-------------------------------------------------------------------------------------------
G-------------------------------------88888888-88888888-66666666-88888888-------------------
D-33333333-33333333-33333333-33333333-88888888-88888888-66666666-88888888-88888888-88888888-
A-33333333-33333333-33333333-33333333-66666666-66666666-44444444-66666666-88888888-88888888-
E-11111111-11111111-11111111-11111111-------------------------------------66666666-66666666-

e-------------------------------------------------------------------------------------------
B-------------------------------------------------------------------------------------------
G-------------------------------------88888888-88888888-66666666-88888888-------------------
D-33333333-33333333-33333333-33333333-88888888-88888888-66666666-88888888-88888888-88888888-
A-33333333-33333333-33333333-33333333-66666666-66666666-44444444-66666666-88888888-88888888-
E-11111111-11111111-11111111-11111111-------------------------------------66666666-66666666-

e-------------------------------------------------
B-------------------------------------------------
G-------------------------------------------------
D-------------------------------------------------
A-10-10-10-10-10-10-10-10-10-10-10-10-10-10-10-10-
E-8--8--8--8--8--8--8--8--8--8--8--8--8--8--8--8--


Chorus

e-------------------------------------------------------
B-------------------------------------------------------
G-66666666----------66666666----------66666666-88888888-
D-66666666-66666666-66666666-66666666-66666666-88888888-
A-44444444-66666666-44444444-66666666-44444444-66666666-
E----------44444444----------44444444-------------------


Verse 2

e-------------------------------------------------------------------------------------------------------------
B-------------------------------------------------------------------------------------------------------------
G-------------------------------------------------------88888888-88888888-66666666-88888888-------------------
D-33333333-33333333-33333333-33333333-33333333-33333333-88888888-88888888-66666666-88888888-88888888-88888888-
A-33333333-33333333-33333333-33333333-33333333-33333333-66666666-66666666-44444444-66666666-88888888-88888888-
E-11111111-11111111-11111111-11111111-11111111-11111111-------------------------------------66666666-66666666-

e-------------------------------------------------------------------------------------------
B-------------------------------------------------------------------------------------------
G-------------------------------------88888888-88888888-66666666-88888888-------------------
D-33333333-33333333-33333333-33333333-88888888-88888888-66666666-88888888-88888888-88888888-
A-33333333-33333333-33333333-33333333-66666666-66666666-44444444-66666666-88888888-88888888-
E-11111111-11111111-11111111-11111111-------------------------------------66666666-66666666-

e-------------------------------------------------
B-------------------------------------------------
G-------------------------------------------------
D-------------------------------------------------
A-10-10-10-10-10-10-10-10-10-10-10-10-10-10-10-10-
E-8--8--8--8--8--8--8--8--8--8--8--8--8--8--8--8--


Chorus

e-------------------------------------------------------
B-------------------------------------------------------
G-66666666----------66666666----------66666666-88888888-
D-66666666-66666666-66666666-66666666-66666666-88888888-
A-44444444-66666666-44444444-66666666-44444444-66666666-
E----------44444444----------44444444-------------------


Bridge

e----------------------------------------------------------------------------------------------------
B----------------------------------------------------------------------------------------------------
G-------------------88888888-66666666-------------------88888888-66666666-66666666-66666666-66668888-
D-33333333-66666666-88888888-66666666-33333333-66666666-88888888-66666666-66666666-66666666-66668888-
A-33333333-66666666-66666666-44444444-33333333-66666666-66666666-44444444-44444444-44444444-44446666-
E-11111111-44444444-------------------11111111-44444444----------------------------------------------


Verse 3

e---------------------------
B---------------------------
G-----let-ring--------------
D-3---first-part-of-Verse-3-
A-3---only-bass-------------
E-1-------------------------

e-------------------------------------------------------------------------------------------
B-enter-with-pickscr*pe---------------------------------------------------------------------
G-------------------------------------88888888-88888888-66666666-88888888-------------------
D-33333333-33333333-33333333-33333333-88888888-88888888-66666666-88888888-88888888-88888888-
A-33333333-33333333-33333333-33333333-66666666-66666666-44444444-66666666-88888888-88888888-
E-11111111-11111111-11111111-11111111-------------------------------------66666666-66666666-

e-------------------------------------------------
B-------------------------------------------------
G-------------------------------------------------
D-------------------------------------------------
A-10-10-10-10-10-10-10-10-10-10-10-10-10-10-10-10-
E-8--8--8--8--8--8--8--8--8--8--8--8--8--8--8--8--


Chorus

e-------------------------------------------------------
B-------------------------------------------------------
G-66666666----------66666666----------66666666-88888888-
D-66666666-66666666-66666666-66666666-66666666-88888888-
A-44444444-66666666-44444444-66666666-44444444-66666666-
E----------44444444----------44444444-------------------


Bridge

e----------------------------------------------------------------------------------------------------
B----------------------------------------------------------------------------------------------------
G-------------------88888888-66666666-------------------88888888-66666666-66666666-66666666-66668888-
D-33333333-66666666-88888888-66666666-33333333-66666666-88888888-66666666-66666666-66666666-66668888-
A-33333333-66666666-66666666-44444444-33333333-66666666-66666666-44444444-44444444-44444444-44446666-
E-11111111-44444444-------------------11111111-44444444----------------------------------------------


Ending

e------------------------------------------------------------------------
B------------------------------------------------------------------------
G----------66666666------------------------------------------------------
D-33333333-66666666-88888888-88888888--repeat-several-times,-at-least-8x-
A-33333333-44444444-88888888-88888888------------------------------------
E-11111111----------66666666-66666666------------------------------------
            
Submit corrections

comments powered by Disqus
↑ Back to top | Lagwagon Tabs for Kids In America. Lyrics for acoustic guitar and electric guitar. Tablatures and chords are parodies/interpretations of the original songs. You may use it for private study, scholarship, research or language learning purposes only