>
 >
Falling Apart Revised

Falling Apart Revised Guitar Tabs

Lagwagon - Falling Apart Revised chords, tabs, tablatures, lyrics

Guitar lessons | Add/correct | Request | Top 50 tabs Artists:  A B C D E F G H I J K L M N O P Q R S T U V W X Y Z 0-9

Falling Apart Revised Guitar Tabs – Lagwagon

CD, Sheet music, Poster

Do you like Falling Apart Revised? Share with your friends now
Tabs
			     FALLING APART - Lagwagon


INTRO guitar 1: all notes x4, except last E
e|---------------------------------------------------------------------------|
B|---------------------------------------------------------------------------|
G|-4--5--6--7--6--10-11-8--13--8--9--4--6--8--9------------------------------|
D|--------------------------------------------9-___mute______----------------|
A|-2--3--4--5--4--8--9--6--11--6--7--2--4--6--7-2-2-2-2-2-2-2----------------|
E|----------------------------------------------0-0-0-0-0-0-0----------------|

INTRO guitar 2: #=8x, *=4x
e|---------------------------------------------------------------------------|
B|---#---#---*---#----*----*----#---#----*-----------------------------------|
G|-13---9---9---6---11---16---13---9---11---9--------------------------------|
D|-X----X---X---X---X----X----X----X---X----9-____mute_____------------------|
A|-11---7---7---4---9----14---11---7---9----7-2-2-2-2-2-2-2------------------|
E|--------------------------------------------0-0-0-0-0-0-0------------------|

VERSE A:
e|-----------------------|--first-time---|--second-time----------------------|
B|-----------------------|---------------|-----------------------------------|
G|---------6-6-----------|-----------4-4-|-------9-9-------------------------|
D|-2--6-6--6-6--9-9--7-7-|-6-6--4-4--4-4-|--9-9--9-9-_____mute____-----------|
A|-2--6-6--4-4--7-7--7-7-|-7-7--4-4--2-2-|--9-9--7-7-2-2-2-2-2-2-2-----------|
E|-0--4-4-------7-7--5-5-|-4-4--2-2------|--7-7------0-0-0-0-0-0-0-----------|

VERSE alternate ending: (played before "I'm old-school"-RIFF)
e|---------------------------------------------------------------------------|
B|---------------------------------------------------------------------------|
G|---------------------------------------------------------------------------|
D|-9-9--6--------------------------------------------------------------------|
A|-9-9--6-6-6-6-6-6-6-6------------------------------------------------------|
E|-7-7--4-4-4-4-4-4-4-4------------------------------------------------------|

"I'm old-school"-RIFF guitar 1 (and 2?):
e|---------------------------------------------------------------------------|
B|---------------------------------------------------------------------------|
G|---------------------------------------------------------------------------|
D|-6-6-6------6-6-6------7-7-7-------6-6-6-----------------------------------|
A|-4-4-4------4-4-4------7-7-7-------6-6-6-----------------------------------|
E|-4-4-4------4-4-4------5-5-5-------4-4-4-----------------------------------|

"I'm old-school"-RIFF guitar 2 (or 3?):
e|---------------------------------------------------------------------------|
B|---------------------------------------------------------------------------|
G|-------96-6-------96-6-------96-6--------85-5------------------------------|
D|------6--6-------6--6-------7--7--------6--6-------------------------------|
A|---------------------------------------------------------------------------|
E|---------------------------------------------------------------------------|

OSTEOPOROSIS guitar 1: #=x8 w/ mute, *=x6-8
e|---------------------------------------------------------------------------|
B|----------#---*-------*---*---*---*----------------------------------------|
G|---------5---5---4-5-6---6---8---8-----------------------------------------|
D|--#---#--X---X---X-X-X---X---X---X-----------------------------------------|
A|-2---2---3---3---2-3-4---4---6---6-----------------------------------------|
E|-0---0---------------------------------------------------------------------|

OSTEOPOROSIS guitar 2: #= 16 W/ mute, *=x16
e|---------------------------------------------------------------------------|
B|---------------------------------------------------------------------------|
G|----------*---*------------------------------------------------------------|
D|--#---#--7---9-------------------------------------------------------------|
A|-2---6---7---9-------------------------------------------------------------|
E|-0---4---5---7-------------------------------------------------------------|

LET ME CATCH MY BREATH-riff:
e|---------------------------------------------------------------------------|
B|---------------------------------------------------------------------------|
G|-9-9-8-8-6-6-8-8-9^~~------------------------------------------------------|
D|--9-9-9-9-9-9-9-9----------------------------------------------------------|
A|---------------------------------------------------------------------------|
E|---------------------------------------------------------------------------|

GUITAR 1 last part, second verse: #=x1-3 (listen to the song...)
e|---------------------------------------------------------------------------|
B|---#---#---#---#---#---#---------------------------------------------------|
G|-13---8---9---4---6---8---------------------------5-5-5-5------------------|
D|-X----X---X---X---X---X---_____mute______-6-6-6-6-6-6-6-6------------------|
A|-11---6---7---2---4---6---6-6-6-6-6-6-6-6-6-6-6-6-6-6-6-6------------------|
E|--------------------------4-4-4-4-4-4-4-4-4-4-4-4-4-4-4-4------------------|

BRIDGE A (I'll never be Ozzy...): note: the two guitars have different timing
here, but they play the same notes... You'll get it.
e|---------------------------------------------------------------------------|
B|---------------------------------------------------------------------------|
G|---2---------6----4----2--------------4------------------------------------|
D|--2-----2---6----4----2-----2----6---4-------------------------------------|
A|-0-----2---4----2----0-----2----6---2--------------------------------------|
E|------0-------------------0----4-------------------------------------------|

BRIDGE B guitar 1: #=x8, *16 w/ mute
e|---------------------------------------------------------------------------|
B|--#-------#---#---#--------------------------------------------------------|
G|-2----#--6---4---2----#----------------------------------------------------|
D|-2---2---6---4---2---2----*------------------------------------------------|
A|-0---2---4---2---0---2---6-------------------------------------------------|
E|-----0---------------0---4-------------------------------------------------|

BRIDGE B guitar 2: #=x16, *=x8
e|---------------------------------------------------------------------------|
B|--#----*---*---#----*----*-------------------------------------------------|
G|-9----6---8---9----8----5--------------------------------------------------|
D|-X----X---X---X----X----X--------------------------------------------------|
A|-7----4---6---7----6----3--------------------------------------------------|
E|---------------------------------------------------------------------------|

"UGLY" RIFF AT 2:13:
e|-------------------------------------------------------------|
B|-17-17-17-17-19-19-19-19-17-17-17-17-17-17-17-17-17-17-17-17-|
G|-16-16-16-16-17-17-17-17-18-18-18-18-19-19-19-19-18-18-18-18-|
D|-------------------------------------------------------------|
A|-------------------------------------------------------------|
E|-------------------------------------------------------------|
 
FIRST TIME
e|-------------------------------------|
B|-18-18-18-18-19-19-19-19-16-16-16-16-|
G|-18-18-18-18-18-18-18-18-16-16-16-16-|
D|-------------------------------------|
A|-------------------------------------|
E|-------------------------------------|
 
SECOND TIME
e|------------------------22b24\-|
B|-19-19-19-19-------------------|
G|-18-18-18-18--21--20-21--------|
D|-------------------------------|
A|-------------------------------|
E|-------------------------------|

ENDING (...for another year...): #=x4, *=x4 w/ mute
e|---------------------------------------------------------------------------|
B|--#------------------------------------------------------------------------|
G|-2----#--------------------------------------------------------------------|
D|-2---4----*--2-------------------------------------------------------------|
A|-0---4---2---2-------------------------------------------------------------|
E|-----2---0---0-------------------------------------------------------------|


Great song, and very hard to tab, so it's not like I'm 100% sure about all
of it. But 96.3% sure, at least... Thanks a whole lot to Jesko Helling for
correcting some things and tabbing out the riff at 2:13!!!
Mail me any comments or corrections!





Comments


Popular Lagwagon tabs & chords
Bombs Away 1 Bass Tabs
Kids Dont Like To Share Bass Tabs
Max Says Bass Tabs
Mr. Coffee 1 Bass Tabs
No One Like You Bass Tabs
Losing Everyone Chords
Dividers Tabs
Mama Said Knock You Out Tabs
No One Tabs
Of Mind And Matters Tabs


Song lyrics



↑ Back to top | Tablatures and chords are parodies/interpretations of the original songs. You may use it for private study, scholarship, research or language learning purposes only
© 2014 AZChords.com Contact us | Privacy policy | DMCA | Add/correct tabs | Request tabs | Top 50 tabs