» » »

Everything Turns Grey Bass tabs (ver.1)

Artists:  A B C D E F G H I J K L M N O P Q R S T U V W X Y Z # 

Everything Turns Grey Bass tabs (ver.1)

Lagwagon
Rating:
0/5 (0 votes)

Hard to play? Try these video lessons and learn fast.
                (1)
rtist - lagwagon	
Song - everything turns grey
Album - lets talk about feelings

Intro: play times 1, comes in right at the end after guitars have played twice
G|-7-5-------------------
D|-----7-5---------------
A|---------7-5-----------
E|-------------7-5-------


Verse *=play times 6
G|--------------------------
D|--------------------------
A|--------------------------
E|-5*-3*-1*-3*--------------
Play alot!

Chorus
G|----------------------
D|----------------------
A|--8-7-8--10-9-10------
E|------------------0---

G|----------------------
D|----------------------
A|--8-7-8--10-9-10------
E|----------------------

and sometimes it finishes with

G|----------------------7-5------------
D|--------------------------7-5--------
A|--8-7-8--10-9-10--------------7-5----
E|------------------0---------------7-5

during the guitar solo just play the verse and end on a A.

All done, not sure who did the orginal but i like this version better,
            
Hard to play? Try these video lessons and learn fast. | Correct




comments powered by Disqus
↑ Back to top | Tablatures and chords are parodies/interpretations of the original songs. You may use it for private study, scholarship, research or language learning purposes only