» » »

Lagwagon, Everything Turns Grey Tabs (ver.1)

Artists:  A B C D E F G H I J K L M N O P Q R S T U V W X Y Z # 

Everything Turns Grey Tabs (ver.1)

Lagwagon Tabs
Rating:
0/5 (0 votes)
Everything Turns Grey lessons Tabs too difficult? Try these video lessons and learn fast
                 intro[3 times]
 e[--------------------------------------------------------------------]
 b[--------------------------------------------------------------------]
 g[--------------------------------------------------------------------]
 d[-7-5----------------------------------------------------------------] 
 a[-----7-6-5----------------------------------------------------------] 
 e[------------7-6-5---------------------------------------------------] 

 Verse                                   
 e[-------------------------------------[-just-b4-chorus-[let-each-ring-a bit] 
 b[-------------------------------------[-------------------------------] 
 g[-------------------------------------[------------9------------------] 
 d[-7-7-7-7-5-5-5-5-3-3-3-3-5-5-5-5-----[-2----------9------------------]
 a[-7-7-7-7-5-5-5-5-3-3-3-3-5-5-5-5-----[-2----------7------------------]
 e[-5-5-5-5-3-3-3-3-1-1-1-1-3-3-3-3-----[-0----------7------------------] 

 this is played once at the beginning of each verse and let each note ring
 [you could also play this bit with power chord thingys so they're indicated
 by the brackets] 
 e[---------------------------------------------------------------------]
 b[---------------------------------------------------------------------]
 g[---------------------------------------------------------------------]
 d[---2------------4------------5-----------7---------------------------]
 a[--[0]----------[2]----------[3]---------[5]--------------------------]
 e[---------------------------------------------------------------------]

 Chorus 1 
 e[---------------------------------------------------------------------] 
 b[---------------------------------------------------------------------]
 g[------------------------9--------------------------------------------]
 d[---------------------2--9-----------------7-5------------------------]
 a[---------------------2--7----------------------7-6-5-----------------]
 e[---1-0-1-3-1-3-------0--7----1-0-1-3-1-3--------------7-6-5----------]

 Verse
 e[-------------------------------------[-------------------------------]
 b[-------------------------------------[-------------------------------]
 g[-------------------------------------[------------9------------------]
 d[-7-7-7-7-5-5-5-5-3-3-3-3-5-5-5-5-----[-2----------9------------------]
 a[-7-7-7-7-5-5-5-5-3-3-3-3-5-5-5-5-----[-2----------7------------------]
 e[-5-5-5-5-3-3-3-3-1-1-1-1-3-3-3-3-----[-0----------7------------------] 

 Chorus 2 
 e[---------------------------------------------------------------------]
 b[---------------------------------------------------------------------]
 g[------------------------9--------------------------------------------]
 d[---------------------2--9--------------------------------------------]
 a[---------------------0--7--------------------------------------------]
 e[-1-0-1-3-1-3---------0--7----1-0-1-3-1-3---/5------------------------] 

 solo
 [under the solo the verse is played]
 i could find no other solo anywhere so i did it myself
 oh, and by the way hb=half bend and fb=full bend
 e[---------------------------------------------------------------------]
 b[---------------------------------------------------------------------]
 g[---------------------------------------------------------------------]
 d[---------------------------------------------------------------------]
 a[----------------------3[hb]-------------------3[hb]----3-5[hb]-3-----]
 e[--3h5-5-3h5-5-3h5-5-5---------5-5-5-5-3-3-3-5--------5-----------5-5-] 

 e[---------------------------------------------------------------------]
 b[---------------------------------------------------------------------]
 g[---------------------------------------------------------------------]
 d[---------------------------------------------------------------------]
 a[----------------------3[hb]-------------------3[hb]----3--3h4h5------]
 e[--3h5-5-3h5-5-3h5-5-5---------5-5-5-5-3-3-3-5--------5----/----------]
                                     this could also be a slide [3s5]
 e[---------------------------------------------------------------------]
 b[--------------------3-3[fb]p2p0-1-----------------1[hb]----1-3[fb]-3-]
 g[--------2-2-2-5-2-5----------------2-2-2-2-0-0-0-2-------2-----------]
 d[--5-2-5--------------------------------------------------------------]
 a[---------------------------------------------------------------------]
 e[---------------------------------------------------------------------]

 
      hb      hb      hb      hb
 e[---/-------/-------/-------/-----------------------------------------]
 b[--3-1-3-1-3-1-3-1-3-1-3-1-3-1-3-1---3[fb]--3-1-----------------------]
 g[---------------------------------------------------------------------]
 d[-----------------------------------------------2~--------------------]
 a[---------------------------------------------------------------------]
 e[---------------------------------------------------------------------]

 chorus 3
 e[---------------------------------------------------------------------]
 b[---------------------------------------------------------------------]
 g[------------------------9--------------------------------------------]
 d[---------------------2--9--------------------------------------------]
 a[---------------------0--7--------------------------------------------]
 e[-1-0-1-3-1-3---------0--7----1-0-1-3-1-3-----------------------------]

 outro
 e[---------------------------------------------------------------------]
 b[---------------------------------------------------------------------]
 g[---------------------------------------------------------------------]
 d[-7-5--------------7----7/--------------------------------------------]
 a[-----7-6-5--------7----7/--------------------------------------------]
 e[-----------7-6-5--5----5/--------------------------------------------]

 lyrics
 [Things don't seem to be as easy as they used to be]
 [It's getting harder everyday to think]
 [Of better things to say]
 [About what's going on around you]
 [And what's happening inside you]
 [When it's time to change you won't know how]
 [It won't matter here from now]

 [No matter what you think or do or say]
 [Everything turns grey]

 [This is it, the darkest hour]
 [Isn't it depressing how our]
 [Minds create an atmosphere]
 [That won't happen here unless we make some new demands]
 [To grasp the future in our hands]
 [You know I wish I could but it's too late]
 [For senseless minds that love to hate]
 
[No matter what they think or do or say]
[Everything turns grey]

the end.....................................................
            

comments powered by Disqus
↑ Back to top | Lagwagon Tabs for Everything Turns Grey. Lyrics for acoustic guitar and electric guitar. Tablatures and chords are parodies/interpretations of the original songs. You may use it for private study, scholarship, research or language learning purposes only