>
 >
Dividers

Dividers Guitar Tabs

Lagwagon - Dividers chords, tabs, tablatures, lyrics

Guitar lessons | Add/correct | Request | Top 50 tabs Artists:  A B C D E F G H I J K L M N O P Q R S T U V W X Y Z 0-9

Dividers Guitar Tabs – Lagwagon

CD, Sheet music, Poster

Do you like Dividers? Share with your friends now
Tabs
Lagwagon - Dividers


Standard tuning



Verse 1

Guitar 1  (each chord played 12x)

|-----------------------------------------||
|-----------------------------------------||
|-9-9-5-5-9-9-5-5-2-4-9-9-5-5-2-4-2-7-----||
|-9-9-5-5-9-9-5-5-2-4-9-9-5-5-2-4-2-7-----||
|-7-7-3-3-7-7-3-3-0-2-7-7-3-3-0-2-0-5-----||
|-----------------------------------------||
  E   C   E   C   A B E   C   A B A D        <-- Chords used


Guitar 2 (each chord [played 6x)

|--------------------------------------------------------------------------------||
|---------------------12-8-----8-8-----------------------------------------------||
|-9-9-9-9-5-5-5-5-9-9------5-5-----6-6-8-8-9-9-12-11-9-9-12-11-6-6-8-8-9-9-7-7---||
|---------5-5-5-5-----9--5-5-5-5-5---------9-9-----------------------------------||
|-7-7-7-7-3-3-3-3-7-7------3-3-----4-4-6-6-7-7-10-9--7-7-10-9--4-4-6-6-7-7-5-5---||
|--------------------------------------------------------------------------------||
  E       C       E        C       A   B   E         C         A   B   A   D 



Breakdown

Guitar 1

|----------------------------------------------------------------||
|----------------------------------------------------------------||
|----------------5-5---5-5---7-7---7-7---------------55---77-----||
|---2-2---2-2--5-5-5-x-5-5-x-7-7-x-7-7---2-2---2-2-x-55-x-77-----||
|---2-2---2-2--2/3-3-x-3-3-x-5-5-x-5-5---2-2---2-2-x-33-x-55-----||
|-3p0-0-3p0-0--------------------------3p0-0-3p0-0---------------||


Guitar 2
|------------------------------------------------------12-------------------------||
|------------------------15b17-17~-15b17-17~-15b17-17~---15-12--------------------||
|--------------------------------------------------------------14-12--------------||
|-----------5-------9-7----------------------------------------------14-----------||
|-5/7---5p77----7-10----------------------------------------------------14-12-----||
|-----------------------------------------------------------------------------12--||



Verse 2 

Guitar 1 (all chords played 12x)

|----------------------------||
|----------------------------|| <> = natural
|-9-9-5-5-2-4-2-7------<12>--||      harmonic
|-9-9-5-5-2-4-2-7-ring-------||
|-7-7-3-3-0-2-0-5------------||
|----------------------------||


Guitar 2 (all chords played 6x)

|------------------------------------------||
|------------------------------------------||
|-9-9-9-9-5-5-12-11-9-9-8-8-9-9-7-7--<12>--||
|-9-9-9-9-5-5-------------------7-7--------||
|-7-7-7-7-3-3-10-9--7-7-6-6-7-7-5-5--------||
|------------------------------------------||



Breakdown 2


Guitar 1  (* = play 16x)

|------------------------------------------------------------||
|------------------------------------------------------------||
|---------------------------------9*-9\----------------------||
|-------------------*--*-----*--*-9--9\--pause-5-7-2-pause---||
|------------------3--5---*-3--5--7--7\--------5-7-2---------||
|-3p000000000000000------0---------------------3-5-0---------||

|--------------------------------------------------------------------||
|----------5--7----------5--7-------1-0------------------------------||
|-----------5--7----------5--7----------2-0---------0----------------||
|-5-7-2------5---5-7-2-----5--7-5-7---------2-0-------4-2-0----------||
|-5-7-2-023------5-7-2-02-------5-7-------------3-2---------2-0------||
|-3-5-0----------3-5-0----------3-5-----------------------------3-2--||

|------------------------------------------------------------------||
|------5--7----------5--7------------------------------------------||
|-------5--7----------5--7------44444444-0---------------2-4-2-77--||
|-2------5---5-7-2-----5--7-5-7-44444444---4-2-0---------2-4-2-77--||
|-2-023------5-7-2-02-------5-7-22222222---------2-0-----0-2-0-55--||
|-0----------3-5-0----------3-5----------------------3-2-----------||
                                                         \   /
                                                           #
   # = play these chords a few times


Guitar 2 (* = play 16x)

|---------------------------------------------------------||
|-----------------------------------------------------*---||
|-------------------------------77771111111199997777-9-9--||
|--------------------*--*--*--*----------------------9-9--||
|-------------------3--5--2--3--55559-9-9-9-77775555-7-7--||
|-3p000000000000000---------------------------------------||

|------------------------------------------------------------||
|----5--7-----------5--7-----------5--7----------5--7--------||
|-----5--7-----------5--7-----------5--7----------5--7-------||
|------5---5-7-2------5---5-7-2------5---5-7-2-----5--7-5-7--||
|-023------5-7-2-023------5-7-2-023------5-7-2-02-------5-7--||
|----------3-5-0----------3-5-0----------3-5-0----------3-5--||

|----------------------------------------------------------------||
|-1-0----------------------------------5--7----------5--7--------||
|-----2-0---------0---------------------5--7----------5--7-------||
|---------2-0-------4-2-0---------2------5---5-7-2-----5--7-5-7--||
|-------------3-2---------2-0-----2-023------5-7-2-02-------5-7--||
|-----------------------------3-2-0----------3-5-0----------3-5--||

|--------------------------------------||
|--------------------------------------||
|-44444444-0---------------14-4-14-77--|| # = play these chords
|-44444444---4-2-0---------14-4-14-77--||     a few times each
|-22222222---------2-0--------2----55--||
|----------------------3-2-------------||
                           \     /
                              #


No Dividers...

Guitar 1 (*( = play 16x)

|-----------------------------------------------------||
|-------------------------------------*--*-----*--*---||
|------------------------------------5--7---*-5--7----||
|-------------------*--*-----*--*----5--7--2--5--7----||
|------------------3--5---*-3--5---*-3--5--2--3--5----||
|-3p000000000000000------0--------0--------0----------||

|--------------------------------------------------||
|--------------------------------------------------||
|---4-4-4/5-5-5-5/7-7-------4-4-4/5-5-5-5/7-7------||
|-2-4-4-4/5-5-5-5/7-7-5-7-2-4-4-4/5-5-5-5/7-7-5-7--||
|-2-------------------5-7-2-------------------5-7--||
|-0-------------------3-5-0-------------------3-5--||

|--------------------------------------------------||
|--------------------------------------------------||
|---4-4-4/5-5-5-5/7-7-------4-4-4/5-5-5-5/7-7------||
|-2-4-4-4/5-5-5-5/7-7-5-7-2-4-4-4/5-5-5-5/7-7-5-7--||
|-2-------------------5-7-2-------------------5-7--||
|-0-------------------3-5-0-------------------3-5--||


Guitar 2 (* = play 16x)

|-----------------------------------------------------||
|-------------------------------------*---*--*--*--*--||
|------------------------------------9--11-12-12-14---||
|-------------------*--*--*--*--*--*------------------||
|------------------3--5--2--3--5--7--7--9--10-10-12---||
|-3p000000000000000-----------------------------------||

|--------------------------------------------------||
|--------------------------------------------------||
|---4-4-4/5-5-5-5/7-7-------4-4-4/5-5-5-5/7-7------||
|-2-4-4-4/5-5-5-5/7-7-5-7-2-4-4-4/5-5-5-5/7-7-5-7--||
|-2-------------------5-7-2-------------------5-7--||
|-0-------------------3-5-0-------------------3-5--||

|------------------------------------------------------||
|------------------------------------------------------||
|---4-4-4/5-5-5-5/7-7-------12-12-12\9-9-9-9\7-7-7-9---||
|-2-4-4-4/5-5-5-5/7-7-5-7-2----------------------------||
|-2-------------------5-7-2-10-10-10\7-7-7-7\5-5-5-7---||
|-0-------------------3-5-0----------------------------||





Comments


Popular Lagwagon tabs & chords
Automatic Bass Tabs
Dis Chords 1 Bass Tabs
No One Like You 3 Bass Tabs
One Thing To Live Chords
Runs In The Family Chords
Bro Dependent Tabs
Bury The Hatchet (Intro) Tabs
Razor Burn Tabs
E Dagger Ukulele
Kids Are All Wrong Ukulele


Song lyrics



↑ Back to top | Tablatures and chords are parodies/interpretations of the original songs. You may use it for private study, scholarship, research or language learning purposes only
© 2014 AZChords.com Contact us | Privacy policy | DMCA | Add/correct tabs | Request tabs | Top 50 tabs