» » »

Lagwagon, Defeat You Tabs (ver.1)

Artists:  A B C D E F G H I J K L M N O P Q R S T U V W X Y Z # 

Defeat You Tabs (ver.1)

Lagwagon Tabs
 Rating:
4/5 (4 votes)
Defeat You lessons Tabs too difficult? Try these video lessons and learn fast
                e|--------------------------------------------------------------------|
B|------------------6-6-6--7-7-7--9-9-9-------------------------------|
G|-----------2-2-2--6-6-6--7-7-7--9-9-9-2-2-2-------------------------|
D|-----------2-2-2--6-6-6--7-7-7--9-9-9-2-2-2-------------------------|
A|-----------0-0-0--4-4-4--5-5-5--7-7-7-0-0-0-------------------------|
E|--------------------------------------------------------------------|

bass intro...  (rythym)play this riff until the chourous
e|--------------------------------------------------------------------|
B|------------10-10-9-10-12-10-9--------------------------------------|
G|--------------------------------------------------------------------|
D|--------------------------------------------------------------------|
A|--------------------------------------------------------------------|
E|--------------------------------------------------------------------|

Here's the lead for the intro and outro(the 10-12-9 notes are pull-offs
e|---------------------------------------------------------------------|
B|-------6-6-11-11--9-9--7-7--9-9--6-6-6--11-11-11--9-9--7-7-7-7-------|
G|---4-4-6-6-11-11--9-9--7-7--9-9--6-6-6--11-11-11--9-9--7-7-7-7-------|
D|---5-5-6-6-11-11--9-9--7-7--9-9--6-6-6--11-11-11--9-9--7-7-7-7-------|
A|---5-5-4-4--9--9--7-7--5-5--7-7--4-4-4---9--9--9--7-7--5-5-5-5-------|
E|---3-3---------------------------------------------------------------|

this is the chorous riff(after this go back to main riff)
e|------------------------------------------|
B|---7-7-7-9-9--------6-6-6-----------------|
G|---7-7-7-9-9--14-14-6-6-6-----------------|
D|---7-7-7-9-9--14-14-6-6-6-----------------|
A|---5-5-5-7-7--12-12-4-4-4-----------------|
E|------------------------------------------|

here's the bridge(continue until bass starts with vocals)
then play chorous, then the outro.
            
Submit corrections

comments powered by Disqus
↑ Back to top | Lagwagon Tabs for Defeat You. Lyrics for acoustic guitar and electric guitar. Tablatures and chords are parodies/interpretations of the original songs. You may use it for private study, scholarship, research or language learning purposes only