» » »

Confession Tabs (ver.3)

Artists:  A B C D E F G H I J K L M N O P Q R S T U V W X Y Z # 

Confession Tabs (ver.3)

Lagwagon
Rating:
0/5 (0 votes)

Hard to play? Try these video lessons and learn fast.
                Written by Lagwagon

Lagwagon: a great band. Confession: one of their best songs ever. Enjoy, 
and listen to the CD for rhythym. You'll pick it up in a flash.

Intro:
E--------------------------------------------------------
B--------------------------------------------------------
G---------------------7-7-7-7-7-7------------------------
D--5----5-5--5-5-5-5--7-7-7-7-7-7--7-7-7-7-7-7--5-5-5-5--
A--5----5-5--5-5-5-5--5-5-5-5-5-5--7-7-7-7-7-7--5-5-5-5--
E--3----3-3--3-3-3-3---------------5-5-5-5-5-5--3-3-3-3--
   G                  D            A            G
(intro con't.)
E----------------------------------------------------
B----------------------------------------------------
G--7-7-7-7-----------------------------5-5-5-5-------
D--7-7-7-7--9-9-9-9--9---7-7-7-7-7-7---5-5-5-5-------
A--5-5-5-5--9-9-9-9--9---7-7-7-7-7-7---3-3-3-3-------
E-----------7-7-7-7--7---5-5-5-5-5-5-----------------
  D         B            A             C
(con't.)
E-------------------------------------------------------
B-------------------------------------------------------
G--7-7-7-7----------------------------------------------
D--7-7-7-7--9-9-9-9---7-7-7-7--5-5-5--5-5---(5)---------
A--5-5-5-5--9-9-9-9---7-7-7-7--5-5-5--5-5---(5)-5-4-7-5-
E-----------7-7-7-7---5-5-5-5--3-3-3--3-3----3----------
   D        B         A        G             G 
Verse: (*repeated)
E------------------
B------------------
G--7---------------
D--7---7---9---5---
A--5---7---9---5---
E------5---7---3---
   D   A   B   G
Chorus:
E-------------------
B-------------------
G--12-------7---9---
D--12---7---7---9--- (Lead guitar plays a riff over the
A--10---7---5---7---  B, but I can't make it out.)
E-------5-----------
   Gii  A   D   B

play this for last part of chorus:
E------------------------------
B------------------------------
G--12-------7---11----12-------
D--12---7---7---11----12---7---
A--10---7---5----9----10---7---
E-------5------------------5---
   Gii  A   D   F#ii  Gii  A

After chorus:
E----------------------------
B----------------------------
G--7-7--7-7-7---7-7-7--7-7---
D--7-7--7-7-7---7-7-7--7-7---
A--5-5--5-5-5---5-5-5--5-5---
E----------------------------
   D 



Solo:(it has two different parts. The second guitar is marked with this: 
* for each part it plays. I'm pretty sure that I got the timing right for 
the most part, but listen to the CD to make sure.)
E---------------------------------------------------------
B-------5-7-----5-7-5---5-7--7--8--7--5-------------5-7-5-
G--7r-7-----7-7-------7-----*7-*7-*7-*6--7r-------7-------
D---------------------------------------*0-*5-*4-------*0-
A---------------------------------------------------------
E---------------------------------------------------------

E-------------------------------7-9-10----------
B---------5-7-5---------5-7-7-8-----------------
G-------7-------------7-------------------------
D-*5-*4------*0-*2-*0------*0---(pick scr*pe)---
A-----------------------------------------------
E-----------------------------------------------

After the solo, play chorus again, and end with 
D D D D D  C#  D

Lyrics:
(Verse)
By now you should find your mouth. By now you should call me, we can work 
it out. I follow it until the end of concession. "A falling out" I heard 
should be in a better place, and thinking for yourself. It's not your axe 
to grind. 
(Chorus)
And this is my latest confession. I hope you hear about it.
(Verse)
Victim I know the saints come to call and bring you obsession, to save 
you from your fall. Victim I know it won't be long. 'Till one woth 
possessing is one you'll never reach.
(Chorus)
Swallow it until the end of our concession. I'm sure I'll hear from you 
through them, there's no discretion. I'm burning out on this, and this is 
my latest condition. I doubt you'll hear about it, it's only indecision. 
This is your latest condition, I hope you hear about it soon.


And that's the whole thing!  let me know if there are any comments, 
changes or anything else you have. I may even take requests! 

Luke
            
Hard to play? Try these video lessons and learn fast. | Correct




comments powered by Disqus
↑ Back to top | Tablatures and chords are parodies/interpretations of the original songs. You may use it for private study, scholarship, research or language learning purposes only