» » »

Coffie And Cigarettes Tabs (ver.1)

Artists:  A B C D E F G H I J K L M N O P Q R S T U V W X Y Z # 

Coffie And Cigarettes Tabs (ver.1)

Lagwagon
Rating:
0/5 (0 votes)

Hard to play? Try these video lessons and learn fast.
                solo note:

 9      >--slide|-4xxxxx-----------2---0h2-4---4-2-----------
|-----------4-3-2-0-2--------4>>-------|-4xxxxx-0---0h2-4---4-------------4-2-0-2-4-
|---------------------0-2----2>>-------|-2xxxxx---2---------------------------------

----------------4--6666-----------------------------2-------------------------------
-4xxxxx---------4--6666-----4xx-----------2---0h2-4---4-2-----------4xxxxx----------
-4xxxxx-0---0-2-2--4444-----4xx-0---0h2-4---4-------------4-2-0-2-4-4xxxxx-0---0-2--
-2xxxxx-- 2-------------0-2-2xx---2---------------------------------2xxxxx---2------
                verse  							    chorus x2
-------------|----------------------------------------------------------||---------||
-------------|----------------------------------------------------------||---------||
-4---4---4---|----77----4xxxx------77----4xx------77----4xx------77-----|*-7-----6-*|
-4-2-4-2-4-2-|-44-77-77-4xxxx-2-44-77-77-4xx-2-44-77-77-4xx-2-44-77-777-|*-7-4-2-6-*|
-2-2-2-2-2-2-|-44-55-77-2xxxx-2-44-55-77-2xx-2-44-55-77-2xx-2-44-55-777-||-5-4-2-4-||
---0---0---0-|-22----55-------0-22----55-----0-22----55-----0-22----555-||---2-0---||
					
|------------|-------|--------|-----||----------------------------------------------
|------------|-------|--------|-----||----------------------------------------------
|------------|-------|--------|-7-9-|*--------------------------------------------2-
|-intro pt.2-|-verse-|-chorus-|-7-9-|*-4--------4-------2-------2-4--------2--(2)-2-
|------------|-------|--------|-5-7-||-4-----44-4-2-3-4---4-3-2-2-4-----44-2--(2)-0-
|------------|-------|--------|-----||-2-0-2-55-2---------------0-2-0-2-55-0--(0)---
                                      solo (guitar 2 play verse)
------------------------------------||--9-----9-------------------------12h14h17p14p12-
------------------------------------||-12fb--12fbr--------10-12-10-17fb----------------
-------------------------------7--7-*|(!!!)-------11--9-11-----------------------------
-4--------2-44---4--------2----7--7-*|-------------------------------------------------
-4-----44-2-44---4-----44-2----5--4-||-------------------------------------------------
-2-0-2-55-0-22---2-0-2-55-0---0--0--||-------------------------------------------------

-12fbr-12p9------------------------9-12p9------9-12p9------9-12p9------9-12p9------9-12
-----------10-12fb-12fb-12fbr--12fb-------12fb--------12fb--------12fb--------12fb-----

p9------9-12p9------9-12p9------9-12p9-12fb-12h14h17p14p12h14-17fbr--------------------
---12fb--------12fb--------12fb------------------------------------14-12-14-17fb-14-12-
							end 
----------------------------|------------|------------|----------------|
---12fb-(14)-(14)-12rb------|--chorus-x4-|------------|----------------|
14---------------------11/0-|-starts on--|------------|-4---4---4------|
----------------------------|-the last --|-intro pt.2-|-4-2-4-2-4-2-44-|
----------------------------|-solo notes-|------------|-2-2-2-2-2-2-44-|
----------------------------|------------|------------|---0---0---0-22-|

*I'm not shure about the end of the solo.. so if YOU dare to find a more correct way to play it
(if mine is wrong) please send it to me! thank you

amazing song! good luck!
            
Hard to play? Try these video lessons and learn fast. | Correct




comments powered by Disqus
↑ Back to top | Tablatures and chords are parodies/interpretations of the original songs. You may use it for private study, scholarship, research or language learning purposes only