>
 >
Coffee & Ciggarettes

Coffee & Ciggarettes Guitar Tabs

Lagwagon - Coffee & Ciggarettes chords, tabs, tablatures, lyrics

Guitar lessons | Add/correct | Request | Top 50 tabs Artists:  A B C D E F G H I J K L M N O P Q R S T U V W X Y Z 0-9

Coffee & Ciggarettes Guitar Tabs – Lagwagon

CD, Sheet music, Poster

Do you like Coffee & Ciggarettes? Share with your friends now
Tabs
intro:
e-|-------------------------------------------------------------------------
B-|-------------------------------------------------------------------------
G-|-----2---------------------------------------------------2---------------
D-|-2-4---4-2-------------------------------------2---2-3-4---4-3-2---------
A-|-----------4-3-2-0-2------4--4-4-4-4-0-4-2-4-4---4---------------4-2-0---
E-|---------------------0-2--2--2-2-2-2---2---------------------------------

e-|-------------------------------------------------------------------------
B-|-------------------------------------------------------------------------
G-|-----------------------------------------------------------2-------------
D-|-------------------4-6-6-6-----------------------2---2-3-4---4-3-2-------
A-|-4-4-4-4-0-4-0-0-0-2-4-4-4-2---4-4-4-4-0-4-2-4-4---4---------------4-2-0-
E-|-2-2-2-2---2---------------0---2-2-2-2---2-------------------------------

e-|-------------------------------|
B-|-------------------------------|
G-|-------------------------------|
D-|-------------------4---4---4---|
A-|-4-4-4-4-0-4-0-0-0-2-2-2-2-2-2-|
E-|-2-2-2-2---2---------0---0---0-|

verse:
e-|-------------------------------------------------------------------------
B-|-------------------------------------------------------------------------
G-|-------------------------------------------------------------------------
D-|-----7-7-----4-4-------7-7-----4-4-------7-7-----4-4-------7-7-----------
A-|-4-4-5-5-7-7-2-2-2-4-4-5-5-7-7-2-2-2-4-4-5-5-7-7-2-2-2-4-4-5-5-7-7-7-7-7-
E-|-2-2-----5-5-----0-2-2-----5-5-----0-2-2-----5-5-----0-2-2-----5-5-5-5-5-

Chorus:
e-|-------|-----------------------------------------------------------------
B-|-------|-----------------------------------------------------------------
G-|-------|-----------------------------------------------------------------
D-|-------|-7-7-7-7-7-7-7-7---------------------------------6-6-6-6-6-6-6-6-
A-|-7-7-7-|-5-5-5-5-5-5-5-5-4-4-4-4-4-4-4-4-2-2-2-2-2-2-2-2-4-4-4-4-4-4-4-4-
E-|-5-5-5-|-----------------2-2-2-2-2-2-2-2-0-0-0-0-0-0-0-0-----------------

e-|-----------------------------------------------------------------|
B-|-----------------------------------------------------------------|
G-|-----------------------------------------------------------------|
D-|-7-7-7-7-7-7-7-7---------------------------------6-6-6-6-6-6-6-6-|
A-|-5-5-5-5-5-5-5-5-4-4-4-4-4-4-4-4-2-2-2-2-2-2-2-2-4-4-4-4-4-4-4-4-|
E-|-----------------2-2-2-2-2-2-2-2-0-0-0-0-0-0-0-0-----------------|

second/third chorus:
e-|-------------------------------------------------------------------------
B-|-------------------------------------------------------------------------
G-|-14-14-14-14-14-14-14-14-11-11-11-11-11-11-11-11-13-13-13-13-13-13-13-13-
D-|-xx-xx-xx-xx-xx-xx-xx-xx--x--x--x--x--x--x--x--x-xx-xx-xx-xx-xx-xx-xx-xx-
A-|-12-12-12-12-12-12-12-12--9--9--9--9--9--9--9--9-11-11-11-11-11-11-11-11-
E-|-------------------------------------------------------------------------

e-|-------------------------------------------------------------------------
B-|-------------------------------------------------------------------------
G-|-16-16-16-16-13-13-13-13-14-14-14-14-14-14-14-14-11-11-11-11-11-11-11-11-
D-|-xx-xx-xx-xx-xx-xx-xx-xx-xx-xx-xx-xx-xx-xx-xx-xx--x--x--x--x--x--x--x--x-
A-|-14-14-14-14-11-11-11-11-12-12-12-12-12-12-12-12--9--9--9--9--9--9--9--9-
E-|-------------------------------------------------------------------------

e-|-------------------------------------------------|-----------------------|
B-|-------------------------------------------------|-----------------------|
G-|-13-13-13-13-13-13-13-13-16-16-16-16-13-13-13-13-|14-14-14-14-16-16-16-16|
D-|-xx-xx-xx-xx-xx-xx-xx-xx-xx-xx-xx-xx-xx-xx-xx-xx-|xx-xx-xx-xx-xx-xx-xx-xx|
A-|-11-11-11-11-11-11-11-11-14-14-14-14-11-11-11-11-|12-12-12-12-14-14-14-14|
E-|-------------------------------------------------|-----------------------|

bridge:
e-|----------------------------------------------------------|
B-|----------------------------------------------------------|
G-|------------------------------------------------------7-7-|
D-|---2-2-------2----------2-2---2----2-2----------2-2---x-x-|
A-|-4-0-0-4-2-4---4-2----4-0-0-4-0--4-0-0-2-4-4--4-0-0-2-5-5-|
E-|-2-----2-----------0--2-----2----2-----0-2-2--2-----0-----|





Comments


Popular Lagwagon tabs & chords
A Feedbag Of Truck Stop Poetry Bass Tabs
Angry Days Bass Tabs
Kids In America Bass Tabs
Resolve Bass Tabs
Rifle 3 Bass Tabs
Today Deutsche ErkläRung Bass Tabs
Falling Apart Chords
Alien 8 1 Tabs
Falling Apart 1 Tabs
Mister Bap Live Tabs


Song lyrics



↑ Back to top | Tablatures and chords are parodies/interpretations of the original songs. You may use it for private study, scholarship, research or language learning purposes only
© 2014 AZChords.com Contact us | Privacy policy | DMCA | Add/correct tabs | Request tabs | Top 50 tabs