>
 >
Choke 1

Choke 1 Guitar Tabs

Lagwagon - Choke 1 chords, tabs, tablatures, lyrics

Guitar lessons | Add/correct | Request | Top 50 tabs Artists:  A B C D E F G H I J K L M N O P Q R S T U V W X Y Z 0-9

Choke 1 Guitar Tabs – Lagwagon

CD, Sheet music, Poster

Do you like Choke 1? Share with your friends now
Bass TabsTabsTabs v2
Tune down (1/2) step

E-------------------------------------
B-------------------------------------
G-------------------------------------
D-------------------------4---4---6---
A-----------4-6-7-7---7---------------
E-4-5-7-5-7---------------------------

Second guitar
E-------------------------------------
B-------------------------------------
G-------------------------------------
D-------------------------------------
A-----------4-6-7-7-7-7-6-6-6-4-------
E-4-5-7-5-7---------------------------

And the day ends...

A , G# , C# , E
A , G# , C# , B
A , G# , C# , F#
E , G# , C# 


Lies, lies...

E--------------
B--------------
G---------1----     
D-2---4--------
A--------------
E--------------
(Second Guitar plays C# chord)


Choke , choke, please... (same as first verse)

A , G# , C# , E
A , G# , C# , B
A , G# , C# , F#
E , G# , C# 


As i understand...

A , G# , C# 
C# (muted)

E--------------------------------------------
B--------------------------------------------
G-6---6--------------------------------------
D-6---6-------4---6--/7--7--7-7-7--6--4--6---
A-4---4--/7-77-------------------------------
E--------------------------------------------

E-------------------------------------------
B-------------------------------------------
G-6---6--------------------------------4-5-6
D-6---6-------4---6--/7--7--7-7-7--6---4-5-6
A-4---4--/7-77-------------------------2-3-4  
E-------------------------------------------

E------------------  Second  E------------------
B------------------  Guitar  B------------------
G-4----------------	     G-4-------9--------	  		
D-4-------2--------          D-4-------9--------
A-2-------2--------          A-2-------7-------- 
E---------0--------          E------------------


E------------------------  Second  E-------------------------
B------------------------  Guitar  B-------------------------
G/7--7--7-7-7--6--4--6---          G/7--7--7-7-7--6----------
D------------------------          D-----------------6-7-6-7-
A------------------------          A-------------------------
E------------------------          E-------------------------



...I Choke...

E-------------------------
B------------------------- The Bass plays
G-6---6------------------- F# on the A, 
D-6---6---------7--7--7-7- thats why the first  
A-4---4---6-7---7--7--7-7- A's sounds diffrent
E---------------5--5--5-5- every first round

E-------------------------
B-------------------------
G-------------------------
D-7---7---------6--6--6-6-
A-7---7---6-7---6--6--6-6-
E-5---5---------4--4--4-4-

E-------------------------
B-------------------------
G-6---6-------------------
D-6---6---------7--7--7-7-
A-4---4---6-7---7--7--7-7-
E---------------5--5--5-5-

E-------------------------
B-------------------------
G-------------------------
D-7---7--------------6----
A-7---7---6-7--------6----
E-5---5--------------4----

E-------------------------
B-------------------------
G-6---6-------------------
D-6---6---------7--7--7-7-
A-4---4---6-7---7--7--7-7-
E---------------5--5--5-5-

E-------------------------
B-------------------------
G-------------------------
D-7---7---------6--6--6-6-
A-7---7---6-7---6--6--6-6-
E-5---5---------4--4--4-4-


Bridge 

C# , B , A ,G#


I thought I knew... 
(let em ring)

A , G# , C# , B
A , G# , C# , B
A , G# , C# , F#
E , G# , C# 

E----------------------
B----------------------
G-----------------6----
D-----------------6----
A-----------4-6-7-4----
E-4-5-7-5-7------------

The rest is the same as the the first time


Chord Explanations

  E   F#  G#  A   B   C#
E-------------------------
B-------------------------
G-----------------4---6---
D-2---4---6---7---4---6---
A-2---4---6---7---2---4---
E-0---2---4---5-----------





Comments


Popular Lagwagon tabs & chords
Ride The Snake Bass Tabs
E. Dagger Chords
Automatic Tabs
Lazy Tabs
May Tabs
May 16 4 Tabs
Name Droping Tabs
Rust Tabs
Status Pools 1 Tabs
Violins Ukulele


Song lyrics



↑ Back to top | Tablatures and chords are parodies/interpretations of the original songs. You may use it for private study, scholarship, research or language learning purposes only
© 2014 AZChords.com Contact us | Privacy policy | DMCA | Add/correct tabs | Request tabs | Top 50 tabs