>
 >
Bury The Hatchet 1

Bury The Hatchet 1 Guitar Tabs

Lagwagon - Bury The Hatchet 1 chords, tabs, tablatures, lyrics

Guitar lessons | Add/correct | Request | Top 50 tabs Artists:  A B C D E F G H I J K L M N O P Q R S T U V W X Y Z 0-9

Bury The Hatchet 1 Guitar Tabs – Lagwagon

CD, Sheet music, Poster

Do you like Bury The Hatchet 1? Share with your friends now
TabsTabs v2
Good song have fun look for more of my tabs 


e]----------------------------------------------------------------------------
b]----------------------------------------------------------------------------
g]-----------------------------------------------------------11-10-8-10-11-13-
d]-8-8-10-11-10----8-10-11-10---8-10-11-10-----8-8-8-11-10-8--9--8-6--8--9-11-
a]-6-6--8--9--8-11-6--8--9--8-9-6--8--9--8-11--6-6-6--9--8-6------------------
e]---------------9------------7-------------9---------------------------------
     ^  ^          ^  ^         ^  ^           ^             

e]----------------------------------------------------------------------------------
b]----------------------------------------------------------------------------------
g]-----------------------------------------11-10-8-10-11-13-15-15-15-15-15-15-15-15-
d]-8-8-8-11-10-8-------------8-8-8-11-10-8--9--8-6--8--9-11-13-13-13-13-13-13-13-13-
a]-6-6-6--9--8-6-9-9-8-9-8---6-6-6--9--8-6------------------------------------------
e]---------------7-7-6-----9--------------------------------------------------------


e]-----------------------------------------------------------------------------------
b]-----------------------------------------------------------------------------------
g]-----------------------------------------------------------------------------------
d]-------------8--11-10-8---6-7-8--11-10-8------------------------8-8-10-11-10-8-6-8-
a]-9-9-8-9-8---6---9--8-6-9-4-5-6---9--8-6-8-8-8-9-9-8-8-9-7------6-6--8--9--8-6-4-6-
e]-7-7-6-----9------------7----------------6-6-6-7-7-6-6-----9-11--------------------
                              ^            ^   ^     ^  

e]---------------------------------------------------------------------
b]---------------------------------------------------------------------
g]---------------------------------------------------------------------
d]-8--8-6-8---------6-6-4-3-8--8-6-8------10-11------10-11-------10-11-
a]-6--6-4-6-9-9-8---4-------6--6-4-6--9-9--8--9-11-11-8--9-13-13--8--9-
e]----------7-----9-------------------7-7--------9--9------11-11-------
                                      ^          ^          ^           

e]-------------------
b]-------------------
g]-------------------
d]-------------------
a]-11-11-11-11-13-13-
e]--9--9--9--9-11-11-                                      
    ^     ^     ^  ^

e]-----------------------------------------------------------------------
b]-----------------------------------------------------------------------
g]-----------------------------------------------------------------------
d]-----10-11-------10-11-------10-11-------------------8--8-6-8----------
a]-9-9--8--9-11-11--8--9-13-13--8--9-11-11-11-11-13-13-6--6-4-6--9-9-8---
e]-7-7--------9--9-------11-11--------9--9--9--9-11-11-----------7-----9-
   ^          ^           ^           ^     ^     ^  ^ 

e]---------------
b]---------------
g]---------------
d]-11-11-10-10-8-
a]--9--9--8--8-6-
e]---------------


e]----------------------------------------------------------------|-----------|---
b]----------------------------------------------------------------|-----------|---
g]----------------------------------------------------------------|-8-6-10-10-|---
d]-8---10-----8---11-11-10-10-8--8---10----8---11-11-10-10-8--6-8-|-8-9-10-11-|-8-
a]-6-9--8-11--6-9--9--9--8--8-6--6-9--8-11-6-9--9--9--8--8-6--4-6-|-6-9--8-11-|-6-
e]---7-----9----7------------------7-----9---7--------------------|-6-7--8--9-|---
                                                                      repeat
                                                                   
e]----------------------|---------------|
b]----------------------|---------------|
g]-(finger picked part)-|---------------|
d]----------------------|-8-------------|
a]----------------------|-6/9~-9~-9~-8~-|
e]----------------------|---------------|

last riff that hasnt been covered yet

e]----------------|
b]----------------|
g]----------------|
d]-8--------------|
a]-6-9-11--8-9-11-|
e]-6-7--9--6-7--9-|





Comments


Popular Lagwagon tabs & chords
Bombs Away Bass Tabs
Name Dropping 1 Bass Tabs
Stockin The Neighbors Bass Tabs
Whipping Boy 1 Bass Tabs
Mr Coffee Drum Tabs
Bombs Away Tabs
Drive By Tabs
Messengers Tabs
Smile Tabs
Losing Everyone Ukulele


Song lyrics



↑ Back to top | Tablatures and chords are parodies/interpretations of the original songs. You may use it for private study, scholarship, research or language learning purposes only
© 2014 AZChords.com Contact us | Privacy policy | DMCA | Add/correct tabs | Request tabs | Top 50 tabs