» » »

Bro Dependent Bass tabs (ver.2)

Artists:  A B C D E F G H I J K L M N O P Q R S T U V W X Y Z # 

Bro Dependent Bass tabs (ver.2)

Lagwagon
Rating:
0/5 (0 votes)

Hard to play? Try these video lessons and learn fast.
                -----------------------------------------------------------------------
             BRO DEPENDENT         LAGWAGON
-----------------------------------------------------------------------

INTRO
G]---------------------------------------------]
D]-------------------------------------------9-]
A]----4-4-5>----4-4-5>-----4-4-5>-----4-4-5>-9-]
E]-5-5-------5-5-------5-5--------5-5--------7-]

VERSEx4
G]-----------]
D]-----------]
A]----4-4-5>-]
E]-5-5-------]

PRE-CHORUS
G]--------------------------]
D]--------------7-6---------]
A]-----5---7--------9-7-9-7-]
E]-5------------------------]

CHORUS
G]----------------------------------------]
D]----------------------------------------]
A]----4-5-5------4-5-5------4-5-5------7>-]
E]-5>-------4-5>-------4-5>-------4-5>----]

VERSE
PRE-CHORUS
CHORUS

BRIDGE
G]---------------------------]
D]---------------------------]
A]----5>---------------5>-7>-]
E]-7>----7>-5-5-2-2-7>-------]

VERSE
PRE-CHORUS
CHORUS
            
Hard to play? Try these video lessons and learn fast. | Correct




comments powered by Disqus
↑ Back to top | Tablatures and chords are parodies/interpretations of the original songs. You may use it for private study, scholarship, research or language learning purposes only