» » »

Lagwagon, Bro Dependent Tabs (ver.1)

Artists:  A B C D E F G H I J K L M N O P Q R S T U V W X Y Z # 

Bro Dependent Tabs (ver.1)

Lagwagon Tabs
 Rating:
4/5 (4 votes)
Bro Dependent lessons Tabs too difficult? Try these video lessons and learn fast
1
                                         BRO-DEPENDENT - Lagwagon


e-|-5-5-------------5-5-------------5-5-------------5-5---------------|
B-|-5-5-------------5-5-------------5-5-------------5-5---------------|
G-|-5-5-------------5-5-------------5-5-------------5-5---------------|
D-|-7-7-6-6-7-7-7-7-7-7-6-6-7-7-7-7-7-7-6-6-7-7-7-7-7-7-6-6-7-7-7-7---|
A-|-7-7-4-4-5-5-5-5-7-7-4-4-5-5-5-5-7-7-4-4-5-5-5-5-7-7-4-4-5-5-5-5-9-|
E-|-5-5-------------5-5-------------5-5-------------5-5-------------7-|

e-|-5-5-------------5-5-------------5-5-------------5-5-------------|
B-|-5-5-------------5-5-------------5-5-------------5-5-------------|
G-|-5-5-------------5-5-------------5-5-------------5-5-------------|
D-|-7-7-6-6-7-7-7-7-7-7-6-6-7-7-7-7-7-7-6-6-7-7-7-7-7-7-6-6-7-7-7-7-|
A-|-7-7-4-4-5-5-5-5-7-7-4-4-5-5-5-5-7-7-4-4-5-5-5-5-7-7-4-4-5-5-5-5-|
E-|-5-5-------------5-5-------------5-5-------------5-5-------------|

e-|----------|-------------------------------------------------------------|
B-|----------|-------------------------------------------------------------|
G-|----------|-------------------------------------------------------------|
D-|----7--9--|-----6-7-9-9-9-9-----6-7-9-9-9-9-----6-7-9-9-9-9-----9-9-9-9-|
A-|-7--5--7--|-7-7-4-5-7-7-7-7-7-7-4-5-7-7-7-7-7-7-4-5-7-7-7-7-7-7-7-7-7-7-|
E-|-5--------|-5-5-------------5-5-------------5-5-------------5-5---------|

e-|-5-5-------------5-5-------------5-5-------------5-5-------------|
B-|-5-5-------------5-5-------------5-5-------------5-5-------------|
G-|-5-5-------------5-5-------------5-5-------------5-5-------------|
D-|-7-7-6-6-7-7-7-7-7-7-6-6-7-7-7-7-7-7-6-6-7-7-7-7-7-7-6-6-7-7-7-7-|
A-|-7-7-4-4-5-5-5-5-7-7-4-4-5-5-5-5-7-7-4-4-5-5-5-5-7-7-4-4-5-5-5-5-|
E-|-5-5-------------5-5-------------5-5-------------5-5-------------|

e-|----------|-------------------------------------------------------------|
B-|----------|-------------------------------------------------------------|
G-|----------|-------------------------------------------------------------|
D-|----7--9--|-----6-7-9-9-9-9-----6-7-9-9-9-9-----6-7-9-9-9-9-----9-9-9-9-|
A-|-7--5--7--|-7-7-4-5-7-7-7-7-7-7-4-5-7-7-7-7-7-7-4-5-7-7-7-7-7-7-7-7-7-7-|
E-|-5--------|-5-5-------------5-5-------------5-5-------------5-5---------|

e-|-----------------------------------------------------------------|
B-|-----------------------------------------------------------------|
G-|-----------------------------------------------------------------|
D-|---------7-7-7-7-------------------------7-7-7-7-9-9-9-9-9-9-9-9-|
A-|-9-9-9-9-5-5-5-5-9-9-9-9-7-7-4-4-9-9-9-9-5-5-5-5-7-7-7-7-7-7-7-7-|
E-|-7-7-7-7---------7-7-7-7-5-5-2-2-7-7-7-7-------------------------|

e-|-5-5-------------5-5-------------5-5-------------5-5-------------|
B-|-5-5-------------5-5-------------5-5-------------5-5-------------|
G-|-5-5-------------5-5-------------5-5-------------5-5-------------|
D-|-7-7-6-6-7-7-7-7-7-7-6-6-7-7-7-7-7-7-6-6-7-7-7-7-7-7-6-6-7-7-7-7-|
A-|-7-7-4-4-5-5-5-5-7-7-4-4-5-5-5-5-7-7-4-4-5-5-5-5-7-7-4-4-5-5-5-5-|
E-|-5-5-------------5-5-------------5-5-------------5-5-------------|

e-|-----------------------|
B-|-----------------------|
G-|-----------------------|
D-|----7--9--14-13-11-9-9-|
A-|-7--5--7--12-11--9-7-7-|
E-|-5---------------------|

e-|-----------------------------------------------------------------|
B-|-----------------------------------------------------------------|
G-|-----------------------------------------------------------------|
D-|-----6-7-9-9-9-9-----6-7-9-9-9-9-----6-7-9-9-9-9-----9-9-9-9-----|
A-|-7-7-4-5-7-7-7-7-7-7-4-5-7-7-7-7-7-7-4-5-7-7-7-7-7-7-7-7-7-7-7-7-|
E-|-5-5-------------5-5-------------5-5-------------5-5---------5-5-|

   =====================================================================
            
Submit corrections

comments powered by Disqus
↑ Back to top | Lagwagon Tabs for Bro Dependent. Lyrics for acoustic guitar and electric guitar. 1 Tablatures and chords are parodies/interpretations of the original songs. You may use it for private study, scholarship, research or language learning purposes only