» » »

Lagwagon, Black Eye Tabs (ver.1)

Artists:  A B C D E F G H I J K L M N O P Q R S T U V W X Y Z # 

Black Eye Tabs (ver.1)

Lagwagon Tabs
 Rating:
4/5 (4 votes)
Black Eye lessons Tabs too difficult? Try these video lessons and learn fast
                

e-|-------------------------------|
B-|-------------------------------|
G-|-------------------------------|
D-|-7-----4--------7-----4--------|
A-|-5--7--2--5--7--5--7--2--5--7--|
E-|----5-----3--5-----5-----3--5--|

e-|-----------------------------------------------------------------
B-|-----------------------------------------------------------------
G-|-----------------------------------------------------------------
D-|-7-7-7-7---------4-4-4-4-4-4-4-4---------------------------------
A-|-5-5-5-5-7-7-7-7-2-2-2-2-2-2-2-2-5-5-5-5-5-5-5-5-7-7-7-7-7-7-7-7-
E-|---------5-5-5-5-----------------3-3-3-3-3-3-3-3-5-5-5-5-5-5-5-5-

e-|-----------------------------------------------------------------
B-|-----------------------------------------------------------------
G-|-----------------------------------------------------------------
D-|-7-7-7-7---------4-4-4-4-4-4-4-4---------------------------------
A-|-5-5-5-5-7-7-7-7-2-2-2-2-2-2-2-2-5-5-5-5-5-5-5-5-7-7-7-7-7-7-7-7-
E-|---------5-5-5-5-----------------3-3-3-3-3-3-3-3-5-5-5-5-5-5-5-5-

e-|-----------------------------------|-----------------|
B-|-----------------------------------|-----------------|
G-|-----------------------------------|-----------------|
D-|-7-7-7-7---------4-4-4-4-----------|--7-----4--------|
A-|-5-5-5-5-7-7-7-7-2-2-2-2-2-2-2-2-5-|--5--7--2--5--7--|
E-|---------5-5-5-5---------0-0-0-0-3-|-----5-----3--5--|

e-|-----------------------------------------------------------------
B-|-----------------------------------------------------------------
G-|-----------------------------------------------------------------
D-|-7-7-7-7---------4-4-4-4-4-4-4-4---------------------------------
A-|-5-5-5-5-7-7-7-7-2-2-2-2-2-2-2-2-5-5-5-5-5-5-5-5-7-7-7-7-7-7-7-7-
E-|---------5-5-5-5-----------------3-3-3-3-3-3-3-3-5-5-5-5-5-5-5-5-

e-|-----------------------------------------------------------------
B-|-----------------------------------------------------------------
G-|-----------------------------------------------------------------
D-|-7-7-7-7---------4-4-4-4-4-4-4-4---------------------------------
A-|-5-5-5-5-7-7-7-7-2-2-2-2-2-2-2-2-5-5-5-5-5-5-5-5-7-7-7-7-7-7-7-7-
E-|---------5-5-5-5-----------------3-3-3-3-3-3-3-3-5-5-5-5-5-5-5-5-

e-|---------------------------------------------------------|
B-|---------------------------------------------------------|
G-|---------------------------------------------------------|
D-|-7-7-7-7---------4-4-4-4-------------------------9-9-9-9-|
A-|-5-5-5-5-7-7-7-7-2-2-2-2-2-2-2-2-5-5-5-5-7-7-7-7-7-7-7-7-|
E-|---------5-5-5-5---------0-0-0-0-3-3-3-3-5-5-5-5---------|

e-|-----------------------------------------------------------|
B-|-----------------------------------------------------------|
G-|-----------------------------------------------------------|
D-|-7------------------------7------------------------7-------|
A-|-5-7-5-7-5-5-5-5-5-5-5-5--5-7-5-7-5-5-5-5-5-5-5-5--5-7-5-7-|
E-|---5-3-5-3-3-3-3-3-3-3-3----5-3-5-3-3-3-3-3-3-3-3----5-3-5-|

e-|-------------------------------------------------------------------
B-|-------------------------------------------------------------------
G-|-------------------------------------------------------------------
D-|-7-7-7-7-7---------7-7-7-7-7---------7-7-7-7-7---------------------
A-|-5-5-5-5-5--5-5-5--5-5-5-5-5--5-5-5--5-5-5-5-5-2-2-5-5-5-5-7-7-7-7-
E-|------------3-3-3-------------3-3-3------------0-0-3-3-3-3-5-5-5-5-

e-|-------------------------------------------------------------------
B-|-------------------------------------------------------------------
G-|-------------------------------------------------------------------
D-|-7-7-7-7-7---------7-7-7-7-7---------7-7-7-7-7---------------------
A-|-5-5-5-5-5--5-5-5--5-5-5-5-5--5-5-5--5-5-5-5-5-2-2-5-5-5-5-7-7-7-7-
E-|------------3-3-3-------------3-3-3------------0-0-3-3-3-3-5-5-5-5-

e-|-----------------|
B-|-----------------|
G-|-----------------|
D-|-----------------|
A-|-7-7-7-7-7-7-7-7-|
E-|-5-5-5-5-5-5-5-5-|

e-|---------------------------------------------------------|
B-|---------------------------------------------------------|
G-|---------------------------------------------------------|
D-|-7-7-7-7---------4-4-4-4-------------------------9-9-9-9-|
A-|-5-5-5-5-7-7-7-7-2-2-2-2-2-2-2-2-5-5-5-5-7-7-7-7-7-7-7-7-|
E-|---------5-5-5-5---------0-0-0-0-3-3-3-3-5-5-5-5---------|

e-|-------------------------------------------------------------|
B-|-------------------------------------------------------------|
G-|-------------------------------------------------------------|
D-|-7------------------------7------------------------7-------7-|
A-|-5-7-5-7-5-5-5-5-5-5-5-5--5-7-5-7-5-5-5-5-5-5-5-5--5-7-5-7-5-|
E-|---5-3-5-3-3-3-3-3-3-3-3----5-3-5-3-3-3-3-3-3-3-3----5-3-5---|

e-|----------------------------------------------
B-|----------------------------------------------
G-|----------------------------------------------
D-|-7-7-7-6-6-11-11-11-12-12---------------------
A-|-5-5-5-4-4--9--9--9-10-10-7-7-7-9-9-5-5-5-7-7-
E-|--------------------------5-5-5-7-7-7-7-7-5-5-

e-|----------------------------------------------
B-|----------------------------------------------
G-|----------------------------------------------
D-|-7-7-7-6-6-11-11-11-12-12---------------------
A-|-5-5-5-4-4--9--9--9-10-10-7-7-7-9-9-5-5-5-7-7-
E-|--------------------------5-5-5-7-7-7-7-7-5-5-

e-|----------------------------------------------
B-|----------------------------------------------
G-|----------------------------------------------
D-|-7-7-7-6-6-11-11-11-12-12---------------------
A-|-5-5-5-4-4--9--9--9-10-10-7-7-7-9-9-5-5-5-7-7-
E-|--------------------------5-5-5-7-7-7-7-7-5-5-

e-|----------------------------------------------
B-|----------------------------------------------
G-|----------------------------------------------
D-|-7-7-7-6-6-11-11-11-12-12---------------------
A-|-5-5-5-4-4--9--9--9-10-10-7-7-7-9-9-5-5-5-7-7-
E-|--------------------------5-5-5-7-7-7-7-7-5-5-

e-|-----------------------------------
B-|-----------------------------------
G-|-----------------------------------
D-|-7-7-7-6-6-11-11-11-12-12----------
A-|-5-5-5-4-4--9--9--9-10-10-9--7--5--
E-|--------------------------7--5--3--

   =====================================================================
            
Submit corrections

comments powered by Disqus
↑ Back to top | Lagwagon Tabs for Black Eye. Lyrics for acoustic guitar and electric guitar. Tablatures and chords are parodies/interpretations of the original songs. You may use it for private study, scholarship, research or language learning purposes only