>
 >
Beer Goggles 1

Beer Goggles 1 Guitar Tabs

Lagwagon - Beer Goggles 1 chords, tabs, tablatures, lyrics

Guitar lessons | Add/correct | Request | Top 50 tabs Artists:  A B C D E F G H I J K L M N O P Q R S T U V W X Y Z 0-9

Beer Goggles 1 Guitar Tabs – Lagwagon

CD, Sheet music, Poster

Do you like Beer Goggles 1? Share with your friends now
Bass TabsDrum TabsTabsTabs v2
 ---------------------------------------------------------------------------

Tuning:Standard
Intro1 g1 x7
e|-------------------------------------------------------------------------|
B|-------------------------------------------------------------------------|
G|-------------------------------------------------------------------------|
D|---9----5----7----5------------------------------------------------------|
A|--7-7--7-7--5-5--7-7-----------------------------------------------------|
E|-0---0----0----0---------------------------------------------------------|
Intro1 g2
e--------------------|
B--------------------|
G--------------------|
D-9999-4444-5555-----|
A-7777-2222-3333-5555|
E----------------3333|
pm...................
Intro2 g1 x2
e|-------------------------------------------------------------------------|
B|-------------------------------------------------------------------------|
G|-------------------------------------------------------------------------|
D|-------------------------------------------------------------------------|
A|-2------22------2------2222----------------------------------------------|
E|-0------00------0------0000----------------------------------------------|
Intro3 g1 x4
e|---------------------|---------------------------------------------------|
B|---------------------|---------------------------------------------------|
G|---------------------|---------------------------------------------------|
D|-9--4-5-7-77777------|--9---play this only at the -----------------------|
A|-7--2-3-5-55555------|--7---end of the 4th one---------------------------|
E|---------------------|---------------------------------------------------|
pm          .....  
On the 4th time slow down the pm bit
Intro4 g1 x4
e|-------------------------------------------------------------------------|
B|-------------------------------------------------------------------------|
G|-------------------------------------------------------------------------|
D|-9-7-9-9999--------------------------------------------------------------|
A|-7-5-9-7777--------------------------------------------------------------|
E|-------------------------------------------------------------------------|
pm       ....
on the last one miss out the pm bit
Verse
e|-----------|---|------------|---|-----------|---|------------------------|
B|-----------|---|------------|---|-----------|---|------------------------|
G|-----------|---|------------|---|-----------|---|------------------------|
D|-9-7-9-9999|---|-9-12-9-9999|---|-9-7-9-9999|---|-99999999-77777777------|
A|-7-5-7-7777|-x4|-7--9-7-7777|-x2|-7-5-7-7777|-x2|-77777777-55555555------|
E|-----------|---|------------|---|-----------|---|------------------------|
pm       ....             ....             ....
Chrous x3
e|-------------------------------------------------------------------------|
B|-------------------------------------------------------------------------|
G|-------------------------------------------------------------------------|
D|-------------------------------------------------------------------------|
A|-5------7----9-7-9-9999--9-12-9-9999-------------------------------------|
E|-3------5----7-5-7-7777--7--9-7-7777-------------------------------------|
pm                   ....         ....
Not sure wat this bit is exactly but this kinda works
e|---------|---|------|---|------------------------------------------------|
B|---------|---|------|---|------------------------------------------------|
G|---------|---|------|---|------------------------------------------------|
D|-9-7-9-99|---|-9-7-9|---|------------------------------------------------|
A|-7-5-7-77|-x2|-7-5-7|-x4|------------------------------------------------|
E|---------|---|------|---|------------------------------------------------|
Outro1 g1 x2
e|---------------------|---------------------------------------------------|
B|---------------------|---------------------------------------------------|
G|---------------------|---------------------------------------------------|
D|---------------------|---------------------------------------------------|
A|-2------2-2------2222|---------------------------------------------------|
E|-o------0-0------0000|-x1 just that then g2 comes in for one more time---|
Outro1 g2 x2
e|-------------------------------------------------------------------------|
B|-------------------------------------------------------------------------|
G|-------------------------------------------------------------------------|
D|---9----5----7----5------------------------------------------------------|
A|--7-7--7-7--5-5--7-7-----------------------------------------------------|
E|-0---0----0----0---------------------------------------------------------|
Outro2 g1 x4 
e--------------------|
B--------------------|
G--------------------|
D-9999-4444-5555-----|
A-7777-2222-3333-5555|
E----------------3333|
pm...................
Outro2 g2 X2
e|---------------------|
B|---------------------|
G|---------------------|
D|-9--4-5-7-77777------|
A|-7--2-3-5-55555------|
E|---------------------|
pm          .....


| /  slide up
| \  slide down
| h  hammer-on
| p  pull-off
| ~  vibrato
| +  harmonic
| x  Mute note
============================================================================
Thank u so very very much its probably wrong though.................





Comments


Popular Lagwagon tabs & chords
Razor Burn 1 Bass Tabs
Rifle 1 Bass Tabs
Weak Bass Tabs
Weak 1 Bass Tabs
Bad Scene Chords
E. Dagger 1 Tabs
Give It Back Tabs
Violins Tabs
May16 Ukulele
Resolve Ukulele


Song lyrics



↑ Back to top | Tablatures and chords are parodies/interpretations of the original songs. You may use it for private study, scholarship, research or language learning purposes only
© 2014 AZChords.com Contact us | Privacy policy | DMCA | Add/correct tabs | Request tabs | Top 50 tabs