>
 >
Baggage

Baggage Guitar Tabs

Lagwagon - Baggage chords, tabs, tablatures, lyrics

Guitar lessons | Add/correct | Request | Top 50 tabs Artists:  A B C D E F G H I J K L M N O P Q R S T U V W X Y Z 0-9

Baggage Guitar Tabs – Lagwagon

CD, Sheet music, Poster

Do you like Baggage? Share with your friends now
Bass TabsTabs
-------------------------------------------------------------------------------
-------------------------------------------------------------------------------

Tuning:standard

m = palm mute

Intro clean guitar

 Pluck using thumb and forefinger, put accent on chords marked with *

|-12-12-12-12-12-12-12-12-11-11-11-11-11-11-11-11-10-10-10-10-10-10-10-10-12-12-12-12-12-12-12-12-||
|-------------------------------------------------------------------------------------------------||
|-9--9--9--9--9--9--9--9--9--9--9--9--9--9--9--9--9--9--9--9--9--9--9--9--9--9--9--9--9--9--9--9--||
|-*--------*--------*-----*--------*--------*-----*--------*--------*-----*--------*--------*-----||
|-------------------------------------------------------------------------------------------------||
|-------------------------------------------------------------------------------------------------||

Play 4x through

Heavy intro
guitar 1.

|----------------------------------------------------------------||
|----------------------------------------------------------------||
|-9-8-5-9-8-5-10-9-8-5-9-8-7-8-7---------------------------------||
|----------------------------------------------------------------||
|-7-6-3-7-6-3-8--7-6-3-7-6-5-6-5---------------------------------||
|----------------------------------------------------------------||

guitar 2.

|----------------------------------------------------------------||
|----------------------------------------------------------------||
|-5-----5-----3--5-----5-----------------------------------------||
|-5-6-3-5-6-3-3--5-6-3-5-6-5-6-5---------------------------------||
|-3-6-3-3-6-3-1--3-6-3-3-6-5-6-5---------------------------------||
|---4-1---4-1------4-1---4-3-4-3---------------------------------||


Verse

'all that we've been through...'
|--------------------------------------------------------------------------------------------------------------------------------||
|-------------mmm----mmm----mmm----mmm----mmm----mmm----mmm----mmm---------------------------------------------------------------||
|-----------5-555-55-555-55-555-55-555-33-333-33-333-33-333-33-333-3--mmm----mmm----mmm----mmm----mmm----mmm----mmm----mmm-------||
|-----------5-555-55-555-55-555-55-555-53-333-33-333-33-333-33-333-33-333-33-333-33-333-33-333-35-555-55-555-55-555-55-555-5-----||
|-3-5-------3-333-33-353-33-333-33-333-31-111-11-111-11-111-11-111-13-333-33-333-33-333-33-333-35-555-55-555-55-555-55-555-5-----||
|-----1-3-----------------------------------------------------------1-111-11-111-11-111-11-111-13-333-33-333-33-333-33-333-3-----||
 \       /
     *        * = 1st guitar, palm muted, tremolo picking


Pre chorus

'I have been the only friend....'

Guitar 1
|----------------||
|----------------|| all chords played as triplets
|-5-3------------|| 12x (for both guitars)
|-5-3-6-5--------||
|-3-1-6-5--------||
|-----4-3--------||

Guitar 2
|----------------||
|----------------||
|-12-10-8-7------||
|----------------||
|-10-8--6-5------||
|----------------||


Chorus

'it's a measure of pity...'

both guitars, strum all chords 8x, except * = play once

|---------------------------------------------------------------------||
|---------------------------------------------------------------------||
|-5-5-8-8-3-3-----5-5-8-8-3-3---------8-8-----5-3-----5-5---------5*--||
|-5-5-8-8-3-3-3-5-5-5-8-8-3-3-3-5-6-6-8-8-6-6-5-3-5-5-5-5-6-6-3-5-5---||
|-3-3-6-6-1-1-3-5-3-3-6-6-1-1-3-5-6-6-6-6-6-6-3-1-5-5-3-3-6-6-3-5-3---||
|-------------1-3-------------1-3-4-4-----4-4-----3-3-----4-4-1-3-----||


Solo rhythm:

play through twice

|------------------------------------------------------------------------------------------------------------------------||
|-----mmm----mmm----mmm----mmm----mmm----mmm----mmm----mmm---------------------------------------------------------------||
|---5-555-55-555-55-555-55-555-33-333-33-333-33-333-33-333-3--mmm----mmm----mmm----mmm----mmm----mmm----mmm----mmm-------||
|---5-555-55-555-55-555-55-555-53-333-33-333-33-333-33-333-33-333-33-333-33-333-33-333-35-555-55-555-55-555-55-555-5-----||
|---3-333-33-353-33-333-33-333-31-111-11-111-11-111-11-111-13-333-33-333-33-333-33-333-35-555-55-555-55-555-55-555-5-----||
|-----------------------------------------------------------1-111-11-111-11-111-11-111-13-333-33-333-33-333-33-333-3-----||
    \                          /
       only play on 2nd time
             through


play pre-chorus again, then play 2nd chorus:

|------------------------------------------------------||
|------------------------------------------------------||
|-----------------8-8---------5-5-8-8------------------|| play all chords 8x
|---1--1--1--1--1-8-8-8-8-3-5-5-5-8-8-8-8-3-5-66*-x-8*-|| * = let chord ring
|-33-33-33-33-33--6-6-8-8-3-5-3-3-6-6-8-8-3-5-64--x-8--||
|-mm-mm-mm-mm-mm------6-6-1-3---------6-6-1-3-44--x-6--||

outro

guitar 1 strums these chords:

|-6-6-4-4----||
|-8-8-4-4----||
|-8-6-5-4----||
|-8-8-6-6----||
|-6-6-6-6----||
|-----4-4----||


guitar 2 plays:

|---6---6---6---6---8---8---7---7-----||
|--8-8-8-8-8-8-8-8-9-9-9-9-9-9-9-9----||
|-8---8---6---6---8---8---8---8-------||
|-------------------------------------||
|-------------------------------------||
|-------------------------------------||


| /  slide up
| \  slide down
| h  hammer-on
| p  pull-off
| ~  vibrato
| +  harmonic
| x  Mute note
===============================================================================





Comments


Popular Lagwagon tabs & chords
Brown Eyed Girl Bass Tabs
Island Of Shame 1 Bass Tabs
No One Like You Bass Tabs
Runs In The Family Bass Tabs
Bad Scene Tabs
Bury The Hatchet 1 Tabs
Gun In Your Hand Tabs
May 1 1 Tabs
The Kids Are All Wrong Tabs
Violins Tabs


Song lyrics



↑ Back to top | Tablatures and chords are parodies/interpretations of the original songs. You may use it for private study, scholarship, research or language learning purposes only
© 2014 AZChords.com Contact us | Privacy policy | DMCA | Add/correct tabs | Request tabs | Top 50 tabs