» » »

Lagwagon, Automatic Tabs (ver.2)

Artists:  A B C D E F G H I J K L M N O P Q R S T U V W X Y Z # 

Automatic Tabs (ver.2)

Lagwagon Tabs
 Rating:
4/5 (4 votes)
Automatic lessons Tabs too difficult? Try these video lessons and learn fast
1
                Lagwagon - Automatic
Resolve - 2005 - Track 2

Tune your guitar to Drop D, tune the low E string a step down so it is D instead.

||Intro 
|Guitar 1+2 - x4
e|--------------------------------|--------------------------------|
B|--------------------------------|--------------------------------|
G|--------------------------------|--------------------------------|
D|9-9-7---9---129---9-7---9-9-7---|9-9-7---9---129---9-7-----------|
A|9-9-7---9---129---9-7---9-9-7---|9-9-7---9---129---9-7-----------|
D|9-9-7---9---129---9-7---9-9-7---|9-9-7---9---129---9-7---4-0-2-0-|

||Verse 
|Guitar 1+2 
e|----------------|----------------|----------------|
B|----------------|----------------|----------------|
G|----------------|----------------|----------------|
D|5-------7-------|0------4--------|5-------7-------|
A|5-------7-------|0------4--------|5-------7-------|
D|5-------7-------|0------4--------|5-------7-------|
Get up, smile, find a need, 
wash your hair, bleach your teeth
Develop habit, 
Automatic 

||Intro - x2

||Verse Part 2
|Guitar 1
e|----------------|----------------|----------------|
B|----------------|----------------|----------------|
G|----------------|----------------|----------------|
D|5-------7-------|0------4--------|5-------8-------|
A|5-------7-------|0------4--------|5-------8-------|
D|5-------7-------|0------4--------|5-------8-------|

|Guiitar 2
e|----------------|----------------|----------------|
B|----------------|----------------|----------------|
G|4---------------|----------------|----------------|
D|X-------7-------|0------4--------|5-------8-------|
A|2-------7-------|0------4--------|5-------8-------|
D|--------7-------|0------4--------|5-------8-------|
Compromise, build a bridge, 
Sacrifice, sacrilege 
Sell yourself, 

||Chorus
|Guitar 1+2 - x2
e|----------------|----------------|----------------|----------------|
B|----------------|----------------|----------------|----------------|
G|----------------|----------------|----------------|----------------|
D|9---------------|5---------------|0---------------|4-------5---7---|
A|9---------------|5---------------|0---------------|4-------5---7---|
D|9---------------|5---------------|0---------------|4-------5---7---|
Nobody out there knows 
None of them have intent
Pretension and purpose 
Fashioned in plastic heads
Everyone drives all day 
None of them have a goal
Everyone lost their way 
All of them play the game

||Breakdown
|Guitar 1 2 - x4
e|--------------------------------|
B|--------------------------------|
G|--------------------------------|
D|9-9-12--9-9-12--9-7-9-12--9-7-9-|
A|9-9-12--9-9-12--9-7-9-12--9-7-9-|
D|9-9-12--9-9-12--9-7-9-12--9-7-9-|

|Guitar 2 - x4
e|--------------------------------|
B|--------------------------------|
G|--------------------------------|
D|9-9-12--9-9-12--%-7-9-12--9-7-9-|
A|9-9-12--9-9-12--%-7-9-12--9-7-9-|
D|9-9-12--9-9-12--%-7-9-12--9-7-9-|
%=pause

||Solo - Maybe off
|Guitar 1 
e|----------------|----------------|----------------|----------------|
B|----------------|----------------|----------------|----------------|
G|----------------|----------------|----------------|----------------|
D|9---------------|5---------------|0---------------|4-------5---7---|
A|9---------------|5---------------|0---------------|4-------5---7---|
D|9---------------|5---------------|0---------------|4-------5---7---|

|Guitar 2  
e|----------------|----------------|----------------|----------------|
B|12~-----19-17-15|15~-----19-17-15|15~-----19-17-14|14~-----12-14-15|
G|----------------|----------------|----------------|----------------|
D|----------------|----------------|----------------|----------------|
A|----------------|----------------|----------------|----------------|
D|----------------|----------------|----------------|----------------|

|Bonus Guitar
e|----------------|----------------|----------------|----------------|
B|----------------|----------------|----------------|--------12-14-15|
G|----------------|----------------|----------------|----------------|
D|----------------|----------------|----------------|----------------|
A|----------------|----------------|----------------|----------------|
D|----------------|----------------|----------------|----------------|

|Guitar 1 
e|----------------|----------------|----------------|--------|
B|----------------|----------------|----------------|--------|
G|----------------|----------------|----------------|--------|
D|9---------------|5---------------|0---------------|4-------|
A|9---------------|5---------------|0---------------|4-------|
D|9---------------|5---------------|0---------------|4-------|

|Guitar 2
e|----------------|----------------|----------------|--------|
B|15~-----19-17-15|15~-----19-17-15|15~-----19-17-15|19~-----|
G|----------------|----------------|----------------|--------|
D|----------------|----------------|----------------|--------|
A|----------------|----------------|----------------|--------|
D|----------------|----------------|----------------|--------|

|Bonus Guitar
e|----------------|----------------|----------------|---------|
B|15~-----12-14-15|12~-----12-14-15|15~-----15-14-12|15~------|
G|----------------|----------------|----------------|---------|
D|----------------|----------------|----------------|---------|
A|----------------|----------------|----------------|---------|
D|----------------|----------------|----------------|---------|

|Guitar 1
e|----------------|----------------|
B|----------------|----------------|
G|----------------|----------------|
D|5-------7-------|5-------4---7-9-|
A|5-------7-------|5-------4---7-9-|
D|5-------7-------|5-------4---7-9-|

|Guitar 2
e|----------------|----------------|
B|----------------|----------------|
G|12-14-1514-15-17|12-14-1519-17-15|
D|----------------|----------------|
A|----------------|----------------|
D|----------------|----------------|

|Bonus Guitar
e|----------------|----------------|
B|----------------|----------------|
G|12-14-1514-15-17|12-14-1515-14-12|
D|----------------|----------------|
A|----------------|----------------|
D|----------------|----------------|

||Post-Solo - Some harmonics and a fill then
|Guitar 1
e|----------------|----------------|----------------|----------------|
B|12------12------|10------7---8-10|12------12------|10------7-------|
G|----------------|----------------|----------------|----------------|
D|----------------|----------------|----------------|----------------|
A|----------------|----------------|----------------|----------------|
D|----------------|----------------|----------------|----------------|

|Guitar 2
e|----------------|----------------|----------------|----------------|
B|12------6-------|3-------7---8-10|12------6-------|3-------7-------|
G|----------------|----------------|----------------|----------------|
D|----------------|----------------|----------------|----------------|
A|----------------|----------------|----------------|----------------|
D|----------------|----------------|----------------|----------------|

||Verse (Modified)
|Guitar 1+2 - Both guitars play the verse chords
Set a goal 
Make it happen 
Imagine love 
Fake a passion
Change your name 
Stay in fashion 
Make a deal 
Make it happen
Compromise, build a bridge
Sacrifice, sacrilege 
Same cars 
Same clothes 
Same desires 
Same woes 
Lose it all 
Automatic 

||Chorus - Rings out on G chord
Nobody out there feels 
None of them sees the end 
Pretension and purpose
Fashioning in plastic heads 
Everyone drives all day
Searching their empty hearts 
Everyone's lost their way
All of us fall apart

||Intro 
|Guitar 1+2 - x2, ends with:
e|----------------|----------------|
B|----------------|----------------|
G|----------------|----------------|
D|----------------|9~--------------|
A|----------------|9~--------------|
D|------------4020|9~--------------|
Automatic 

Song Order:
Intro
Verse
Intro 
Verse Part 2
Chorus
Breakdown
Solo
Post-Solo
Verse (Modified)
Chorus
Intro

Awesome song, the solo may be a little off with the harmonizing. Have fun with this one.
            
Submit corrections

comments powered by Disqus
↑ Back to top | Lagwagon Tabs for Automatic. Lyrics for acoustic guitar and electric guitar. 1 Tablatures and chords are parodies/interpretations of the original songs. You may use it for private study, scholarship, research or language learning purposes only