>
 >
Angry Days

Angry Days Guitar Tabs

Lagwagon - Angry Days chords, tabs, tablatures, lyrics

Guitar lessons | Add/correct | Request | Top 50 tabs Artists:  A B C D E F G H I J K L M N O P Q R S T U V W X Y Z 0-9

Angry Days Guitar Tabs – Lagwagon

CD, Sheet music, Poster

Do you like Angry Days? Share with your friends now
Bass TabsBass Tabs v2TabsTabs v2



Intro: (guitar 1)
e|----------------------------------------|
B|----------------------------------------|
G|--9-------4-----------------------------|
D|--9---4---4---6------repeat 4 times-----|
A|--7---4---2---6-------------------------|
E|------2-------4-------------------------|

Intro: (guitar 2)
e|---------------------------------------------------|
B|--------------------------------------------(4)----|
G|-4-4-3--3-4-3-4-4-3--3-4-3-4-4-3--1-3-1-3-4--3-----|
D|---------------------------------------------------|
A|---------------------------------------------------|
E|---------------------------------------------------|

e|---------------------------------------------------|
B|---------------------------------------------------|
G|-4-4-3--3-4-3-4-4-3--3-4-3-4-4-3--1-3-1-4--3-------|
D|---------------------------------------------------|
A|---------------------------------------------------|
E|---------------------------------------------------|

e|---------------------------------------------------|
B|--------------------------------------------(4)----|
G|-4-4-3--3-4-3-4-4-3--3-4-3-4-4-3--1-3-1-3-4--3-----|
D|---------------------------------------------------|
A|---------------------------------------------------|
E|---------------------------------------------------|

e|---------------------------------------------------|
B|---------------------------------------------------|
G|-4-4-3--3-4-3-4-4-3--3-4-3-4-----------------------|
D|---------------------------------------------------|
A|---------------------------------------------------|
E|---------------------------------------------------|

*Verse 1 (both guitars)

Angry Youth...
e|---------------------------------------------------|
B|---------------------------------------------------|
G|------------------------4--------------------------|
D|-1----------6---2---4---4--4------4----1---6---4---|
A|-1---4h6p4--6---2---4---2--4---4h6-----1---6---4---|
E|-X----------4---0---2------2-----------X---4---2---|

*Chorus (both guitars)

Cause everyone...
e|------------------------------------------------------------|
B|------------------------------------------------------------|
G|-4---8-------6---------------------8---------------6--------|
D|-4---8---6---6---4---4/6/8/9---9---8---6---2---4---6---4----|
A|-2---6---6---4---4---4/6/8/9---9---6---6---2---4---4---4----|
E|---------4-------2---2/4/6/7---7-------4---0---2-------2----|

*Repeat intro 1 1/2 times without guitar 2

*Solo
(guitar 1)
e|------------------------------------------------------------------------|
B|------------------------------------------------------------------------|
G|-4----------------------------------------------------------------------|
D|-4--1---6---4---2---4---4/6/8/9----repeat 2 times without the slide part|
A|-2--1---6---4---2---4---4/6/8/9-----------------------------------------|
E|----X---4---2---0---2---2/4/6/7-----------------------------------------|

e|------------------------------------------------------|
B|------------------------------------------------------|
G|---------6--------------------------------------------|
D|-2---4---6---4----repeat intro 3 times----------------|
A|-2---4---4---4----------------------------------------|
E|-0---2-------2----------------------------------------|

(guitar 2)
e|-----------15------------15-----------17------20-19-------|
B|-13-15-17-----13-15-17-----13-15-17-----17----------------|
G|----------------------------------------------------------|
D|----------------------------------------------------------|
A|----------------------------------------------------------|
E|----------------------------------------------------------|

e|----20-19-----20-19--17-17/15-15--------------------------|
B|-17--------17-----------------------8/10-10/12-12/13------|
G|----------------------------------------------------------|
D|----------------------------------------------------------|
A|----------------------------------------------------------|
E|----------------------------------------------------------|

e|-----------15------------15-----------17------20-19-------|
B|-13-15-17-----13-15-17-----13-15-17-----17----------------|
G|----------------------------------------------------------|
D|----------------------------------------------------------|
A|----------------------------------------------------------|
E|----------------------------------------------------------|

e|----20-19-----20-19-17-----20-19-----------------------------------|
B|-17--------17------------17---------------------------------2-4----|
G|--------------------------------------4-3-4-3---------1-3/4--------|
D|----------------------------------------------4-2-4-4--------------|
A|-------------------------------------------------------------------|
E|-------------------------------------------------------------------|

e|-------------------------1-----------------------------------------|
B|---------------------2-4----5-4-5-4--------------------------------|
G|-4-3-4-3-1--1-1-3/4----------------4-3-4----3h4-3h4--4-4-4-4-4-4/1-|
D|-----------4------------------------------4-4----------------------|
A|-------------------------------------------------------------------|
E|-------------------------------------------------------------------|

e|-------------------------------------------------------------------|
B|-------------5-4-5-4-----------------------------------------------|
G|-1--1--1--1----------4-3-4-----3h4-3h4--4-4-4-4-4-4/1--1--1--1--1--|
D|----------------------------4-4------------------------------------|
A|-------------------------------------------------------------------|
E|-------------------------------------------------------------------|

e|---------------------------------|
B|-5-4-5-4-------------------------|
G|---------4-3-4-----3h4-3h4-------|
D|---------------4-4---------------|
A|---------------------------------|
E|---------------------------------|

*Verse 2 (both guitars)

But when you've lost.....
  pm - - - - - - - - - - - - - - - - - - - - - - - - - - - -- - - ->
e|---------------------------------------------------|
B|---------------------------------------------------|
G|--4---------------4--------------------------------|
D|--4---6---2---4---4---1---2---4--------------------|
A|--2---6---2---4---2---1---2---4--------------------|
E|------4---0---2-------x---0---2--------------------|

*Repeat Chorus with Intro 3 times

*Ending
e|---------------------------------|
B|---------------------------------|
G|---------------------------------|
D|--1----6----2---4----------------|
A|--1----6----2---4----------------|
E|--x----4----0---2----------------|

*Repeat Intro 4 times with both guitars





Comments


Popular Lagwagon tabs & chords
Gun In Your Hand 1 Bass Tabs
Rust 1 Bass Tabs
Twenty - Seven Bass Tabs
Unfurnished Drum Tabs
Change Despair Tabs
Love Story Tabs
Mr. Coffee 1 Tabs
Sad Astronaut 1 Tabs
E Dagger Ukulele
Kids In America Ukulele


Song lyrics



↑ Back to top | Tablatures and chords are parodies/interpretations of the original songs. You may use it for private study, scholarship, research or language learning purposes only
© 2014 AZChords.com Contact us | Privacy policy | DMCA | Add/correct tabs | Request tabs | Top 50 tabs