>
 >
Alison's Disease

Alison's Disease Bass Tabs

Lagwagon - Alison's Disease chords, tabs, tablatures, lyrics

Guitar lessons | Add/correct | Request | Top 50 tabs Artists:  A B C D E F G H I J K L M N O P Q R S T U V W X Y Z 0-9

Alison's Disease Bass Tabs – Lagwagon

CD, Sheet music, Poster

Do you like Alison's Disease? Share with your friends now
Bass Tabs
ALISON'S DISEASE by Lagwagon. Album : Live Fat Die Young(Fat Wreck Comp)(2001)
I'm a little bit disappointed. This absolutely amazing piece of the greatest
of the great punkrock songs is played in low D-tuning... You don't get to play
it too often then. *** it, 'cause THIS SONG IS JUST TOO GREAT TO BE REAL!
:
# verse # *=play 7X
F------------------------------------*---------/--------------------|
C---2222------------2222----*-------2-------2-225555-*-------------0|
G-----------*------------2-3------------------------5-------2-22223-|
D--------2-3--------------------------------------------------------|
:
# verse-part2 #
F-----------*-------------------------------------------------------|
C---2222-4-5--------2024-4--*-------2---2---5---5----*------7-7754--|
G--------------------------3------------------------5-------------75|
D-------------------------------------------------------------------|
:
# chorus # #=play 3X %=pause                                        >
F------------------------------------------------------------------->
C----#-------#--------------5-4------#-------#---------------#------>
G---3-------5--------#----------7-5-3-------5--------#------7------->
D-------------------3-------------------------------3--------------->
chorus
-/12-------7--------*----------------------------------------%%%%%%|
-/12-------7-------9-----------9----#-------#------5-5-5-5-5-%%%%%%|
---------------------------9-------3-------5-----------------%%%%%%|
-------------------------------------------------------------%%%%%%|
:        
# solo-bg # *=play 7X                
F-----------*---------4--------------*------------------------------|
C---2202-4-5--------22-2----*-------2-------5-55245--*----------54--|
G------------------------2-3------------------------5-------2-32--76|
D-------------------------------------------------------------------|
:
# verse2 #  *=play 7X %=pause                                       
F-----------------------------------%-------%-------%-------%-------|
C---2222------------2222----*-------%2--2---%5--5---%-------%7--54--|
G-----------*------------2-3--------%-------%-------%5--5---%-----75|
D--------2-3------------------------%-------%-------%-------%-------|
:
# chorus2 # #=play 3X %=pause                                       >
F------------------------------------------------------------------->
C----#-------#-----------------------#-------#---------------#------>
G---3-------5--------#-------#------3-------5--------#------7------->
D-------------------3-------3-----------------------3--------------->
chorus2
---------------------------------/12------12----\\\%%%%%%%%|
----#-------#---------------#----/12------12-------%%%%%%%%|
---3-------5--------#------2-----------------------%%%%%%%%|
-------------------3-------------------------------%%%%%%%%|
:
# bridge # *=play 12X                                               >
F----*-------------------------------*------------------------------>
C---3----------------*--------------2----------------*-------------->
G-------------------3-------------------------------2--------------->
D------------------------------------------------------------------->
bridge                                                             >
----*---------------*-------------------------------*-------------->
---2---------------4---------------5---4---2---0---2--------------->
bridge
------------------------------------*------------------------9-----7--------|
----*---------------*--------------9---------------5---5---7-----7---7------|
---3---------------5--------------------------------------------------10-9-7|
-----------------------------------------------------------\---FAST--------/|
to next page
ALISON'S DISEASE                                                         2/2
:
# calm # 1:32 !along with B-guitar!
F-------------------------------------------------------|>distorted-|
C---2--------------/9--------------------------------8--------------|
G-------------------------------------------------------7-----------|
D-------------------------------------------------------------------|
:
# storm #                                                           >
F------------------------------------------------------------------->
C---------------------------------/--------------------------------->
G----------------------------5--5-56-------------------------5--5-57>
D---0---0-0005-35-0003--3-000--------0--0-0005345-0003--3-000------->
storm
-------------------------7-----------------------------------------|
---5--------9757----75-5-----------5-----------7---9---9-997-\\----|
----7-----------------7-----5--5-57-7\\7--\\---7---------------0---|
-------0------------------------------------5----------------------|
:
# violin # *=play 5-8X  +=play 22X                                    >
F--------------------------------------------------------------------->
C---------------------*-------*------------------------*-------4575-4->
G----*--------*------5-------7---------*-------*------5-------7------->
D---5--------3------------------------5-------3----------------------->
violin
------------------------------------------------------*-------+-------------|
----*--------*-------*-------------------------------7-------5--------------|
---3--------2-------0-----------------*-------*---------------------------2/|
----------------------------3-3-03///8-------7------------------------------|
:
# verse3 # *=play 7X
F-------------------------------------------------------------------|
C---2-02------------2222----*-------2---2-225---5-55------------/---|
G----2------*------------2-3------------------------5---5-552-2235--|
D--------2-3--------------------------------------------------------|
:
# final #   *=play 7X                                               >
F----*-------*-----------------------*-------*---------------------->
C---2-------5--------*-------*------2-------5--------*-------------0>
G-------------------5-------2-----------------------5-------2220-23->
D------------------------------------------------------------------->
final                                                               
----*-------*-----------------------*-------*----------------------|
---2-------5--------*-----------4442-------5--------*-------*------|
-------------------5-------2-222-------------------5-------2-------|
:
# outro # *=play 8X #=play 4-5X "=play 2X t=play with power         >
F----*-------*-------*-------*---------------*-------*-------#--"-"->
C---2-------5-------7-------9--------*------5-------7-------9--1012->
G-----------------------------------7------------------------------->
D------------------------------------------------------------------->
outro                                   t
--------9"--*-------*-------#--"-"------9"--*-------*----------------|
----#---9--5-------7-------9--1012--#---9--5-------7--------#--------|
---7-------------------------------7-----------------------2---3-5-7-|
:
Once in a lifetime song... Mozart and Beethoven are turning in their graves! 





Comments


Popular Lagwagon tabs & chords
After You My Friend Bass Tabs
Baggage Bass Tabs
Momma Said Knock You Out 1 Bass Tabs
Unfurnished Drum Tabs
Brown Eyed Girl 1 Tabs
Island Of Shame Tabs
Mr. Coffee Tabs
Dancing The Collapse Ukulele
Falling Apart Ukulele
Love Story Ukulele


Song lyrics



↑ Back to top | Tablatures and chords are parodies/interpretations of the original songs. You may use it for private study, scholarship, research or language learning purposes only
© 2014 AZChords.com Contact us | Privacy policy | DMCA | Add/correct tabs | Request tabs | Top 50 tabs