» » »

Lagwagon, A Feedbag Of Truck Stop Poetry Bass tabs (ver.1)

Artists:  A B C D E F G H I J K L M N O P Q R S T U V W X Y Z # 

A Feedbag Of Truck Stop Poetry Bass tabs (ver.1)

Lagwagon Tabs
Rating:
0/5 (0 votes)
A Feedbag Of Truck Stop Poetry lessons Tabs too difficult? Try these video lessons and learn fast
                Listen carefully the pre-chorus! Is hard to hear all the notes
but it is correct.

# intro #   *=x12
G---------|
D---------|
A--0--0*--|
E---------|

# verse1 #        
G----------------------------------------|
D-------0242-----------------------------|
A--5-55-----2-22--54------5-5------------|
E-------------------5-3-3-----5-55--333--|

# verse2 #
G--------------------------------------|
D-------42-----------------------------|
A--5-55---542-22-542------7-7----------|
E-------------------5-3-3-----555-555--|

# pre-chorus1 #    +=x8
G--------------------------------------------------------|
D--------------------------------------------------------|
A--5+--2222-2----5+--2222-2------------2------------777--|
E------------535-----------535--3+--5+---0--03---03------|

Then play verse1, verse2;

# pre-chorus2 #        #=x6
G----------------------------------------------------------------|
D--------------------020-----------------------------------------|
A--5#-2-222-----5-55-----2-22-542--------5-----------5---7---10--|
E-----------535-------------------5-3-33---5-55-555--------------|

# chorus # (at 0:45)    +=x8     %=pause
G----------------------------------------|>
D----------------------------------------|>
A----------5+--2+--------%%5-5-5---------|>
E--3+--5+----------3+--5+---------2-2-2--|>

chorus                 #=x6     \\=slide
----(x2)---|----------------------------------|
-----------|----------------------------------| 
-------2-0-|--------------2-2-2-2---------5\\-| 
--3-3#-----|--3-3#-%0-%2----------5-5-5-5-----| 

Stop! little pause ...here comes the guitar
# intro2 # (at 1:10)
G--------|
D--------|
A--------|
E--3-3-3-|

Then play verse2 !!

# outro #    +=x8     %=pause
G-------------------------------------------------------------------|
D----------------------------------------------------4--2-----------|
A--5+--2222-2----5+-2222-2-----------2---------------------5---5-5--|
E------------535----------535--3+-5+---0-03--03-%5------------------|
:
Enjoy playing this ... I did ... 28.03.2000
            

comments powered by Disqus
↑ Back to top | Lagwagon Bass for A Feedbag Of Truck Stop Poetry. Lyrics for acoustic guitar and electric guitar. Tablatures and chords are parodies/interpretations of the original songs. You may use it for private study, scholarship, research or language learning purposes only