>
 >
A Feedbag Of Truckstop Poetry

A Feedbag Of Truckstop Poetry Guitar Tabs

Lagwagon - A Feedbag Of Truckstop Poetry chords, tabs, tablatures, lyrics

Guitar lessons | Add/correct | Request | Top 50 tabs Artists:  A B C D E F G H I J K L M N O P Q R S T U V W X Y Z 0-9

A Feedbag Of Truckstop Poetry Guitar Tabs – Lagwagon

CD, Sheet music, Poster

Do you like A Feedbag Of Truckstop Poetry? Share with your friends now
ChordsTabsUkulele
----------------------------------------------------------------------------
----------------------------------------------------------------------------
Tuning:EADgbe

intro:

guitar 1:
 clean tone(slight drive)
e|---0------0---0--|
B|---2------5---7--|
G|---2------4---6--|
D|---2------5---7--|
A|---0------0---0--|
E|-----------------|

verse 1:

           i pulled o-ver for-a teabag        i  thought-of you-itwasn'tbad  
e|--------------------------------------------------------------------------|
B|--------------------------------------------------------------------------|
G|------------------------7--7-7-7-7---7-6-7---7--7------7--7---7--7--7-6---|
D|-7--7-7-7-7-7-7-7-7-7-7-7--7-7-7-7---7-7-7---7--7------7--7---7--7--7-7---|
A|-7--7-7-7-7-7-7-7-7-7-7-5--5-5-5-5---5-5-5---5--5------5--5---5--5--5-7---|
E|-5--5-5-5-5-5-5-5-5-5-5-----------------------------------------------5---|
PM   |-------------------|             ^ ^ ^                ^      ^    ^

        you
e|----------|
B|----------|
G|---7-7-7--|
D|---7-7-7--|
A|---5-5-5--|
E|----------|
     ^ ^ ^

   had direction   and drive          and you   ar-rived at-closing time 
e|--------------------------------------------------------------------------|
B|--------------------------------------------------------------------------|
G|--7--7-7-7-7-----7-6-7--------------7--7------7--7-----7--7--7-6----------|
D|--7--7-7-7-7-----7-7-7--------------7--7------7--7-----7--7--7-7----------|
A|--5--5-5-5-5-----5-5-5--------------5--5------5--5-----5--5--5-7----------|
E|---------------------------------------------------------------5----------|
                   ^ ^ ^                           ^        ^    ^
e|----------|
B|----------|
G|---7-7-7--|
D|---7-7-7--|
A|---5-5-5--|
E|----------|
     ^ ^ ^
refrain:

   to-find-they wiped down the-bar 
e|-------------------------------------|
B|-------------------------------------|
G|-7-----7--------------------6-7-6-4--|
D|-7-----7----7----9------------------9|
A|-5-----5----7----9-------------------|
E|------------5----7-------------------|

   and-they    built you   a-bed 
e|-------------------------------------|
B|-------------------------------------|
G|-7-----7--------------------6-7-6-4--|
D|-7-----7----7----9------------------9|
A|-5-----5----7----9-------------------|
E|------------5----7-------------------|

post-chorus:

  laid your head to rest and left you
e|------------------------|
B|------------------------|
G|------------------------|
D|--7---------------9-----|
A|--7---------------9-----|
E|--5---------------7-----|

tried-and-true a--gain
e|-----------------------|
B|-----------------------|
G|--7-----------------12-|
D|--7-------7---------12-|
A|--5-------7---------10-|
E|----------5------------|
                       .

verse 2:
  you may be proud then               
e|-----------------------------------|
B|-----------------------------------|
G|--7--7-7-7-7-----7-6-7-------------|
D|--7--7-7-7-7-----7-7-7-------------|
A|--5--5-5-5-5-----5-5-5-------------|
E|-----------------------------------|

as it was 
e|----------|
B|----------|
G|---7-7-7--|
D|---7-7-7--|
A|---5-5-5--|
E|----------|
     ^ ^ ^      
                                          
     al   -ways-wish-for- thought 
e|-------------------------|
B|-------------------------|
G|---7-----7---7-----7---6-|
D|---7-----7---7-----7---7-|
A|---5-----5---5-----5---5-|
E|-------------------------|
     ^         ^         ^

    i would imagine you off            maybe i could    see you again 
e|-------------------------------------------------------------------|
B|-------------------------------------------------------------------|
G|--7--7-7-7-7------7-6-7--------------7--7------7--7-----7--7--7-6--|
D|--7--7-7-7-7------7-7-7--------------7--7------7--7-----7--7--7-7--|
A|--5--5-5-5-5------5-5-5--------------5--5------5--5-----5--5--5-5--|
E|-------------------------------------------------------------------|
                    ^ ^ ^                           ^        ^    ^
     we could sit 
e|----------|
B|----------|
G|---7-7-7--|
D|---7-7-7--|
A|---5-5-5--|
E|----------|
     ^ ^ ^
chorus:

     down and have a mo    ment 
e|-------------------------------------|
B|-------------------------------------|
G|-7-----7--------------------6-7-6-4--|
D|-7-----7----7----9------------------9|
A|-5-----5----7----9-------------------|
E|------------5----7-------------------|

   and talk about your suicide 
e|-------------------------------------|
B|-------------------------------------|
G|-7-----7--------------------6-7-6-4--|
D|-7-----7----7----9------------------9|
A|-5-----5----7----9-------------------|
E|------------5----7-------------------|

 post-chorus:

and i would put away your death--if you could
e|------------------------|
B|------------------------|
G|------------------------|
D|--7---------------9-----|
A|--7---------------9-----|
E|--5---------------7-----|

   put    a- way the- dope 
e|-----------------------|
B|-----------------------|
G|--7-----------------12-|
D|--7-------7---------12-|
A|--5-------7---------10-|
E|----------5------------|
                       .
bridge:

  and all our enemies, well there's no time for you to know them 
e|----------------------------------------------------|
B|----------------------------------------------------|
G|---------------------------7--7-7--7----------------|
D|-5--5-5--5----7--7-7--7----7--7-7--7---9--9-9--9----|
A|-5--5-5--5----7--7-7--7----5--5-5--5---9--9-9--9----|
E|-3--3-3--3----5--5-5--5----------------7--7-7--7----|

any crooked mind disease but-- hopeless fools they will be missing you 
e|------------------------------------------------------|
B|------------------------------------------------------|
G|-----------------------------7--7-7--7----------------|
D|-5--5-5--5----7--7-7--7------7--7-7--7---5--5-5--5----|
A|-5--5-5--5----7--7-7--7------5--5-5--5---5--5-5--5----|
E|-3--3-3--3----5--5-5--5------------------3--3-3--3----|
                        .

interlude:

guitar 1:
e|-----------------------------|
B|-----------------------------|
G|-----------------------------|
D|--5--5-5-5-5-5-5--9--9-9-7---|
A|--5--5-5-5-5-5-5--9--9-9-7---|
E|--3--3-3-3-3-3-3--7--7-7-5---|
PM    |-----------|

 guitar 2:
e|------------------------------|
B|-----------------8------7p5---|
G|----------7------------------7|
D|--5--7h9-------5---5----------|
A|------------------------------|
E|------------------------------|
       ^           ^      ^
e|------------------------------|
B|-----------------8------7p5---|
G|----------7------------------7|
D|--5--7h9-------5---5----------|
A|------------------------------|
E|------------------------------|
       ^           ^      ^

then this:
guitar 1:
e|----------|
B|----------|
G|----------|
D|--5---7---|
A|--5---7---|
E|--3---5---|

guitar 1 again:

e|------------------------------|
B|------------------------------|
G|------------------------------|
D|--9----------------7----------|
A|--9----------------7----------|
E|--7----------------5----------|

 guitar 2:

e|------------------------------|
B|----------7---------------7---|
G|------7------7---------7-----7|
D|---9---------------7----------|
A|------------------------------|
E|------------------------------|
     ^               ^

verse 3:
    i pulled over for nostalgia              i thought of suf-fer-ing-the-joke 
e|--------------------------------------------------------------------------|
B|--------------------------------------------------------------------------|
G|------------------------7--7-7-7-7---7-6-7---7--7------7--7---7--7--7-6---|
D|-7--7-7-7-7-7-7-7-7-7-7-7--7-7-7-7---7-7-7---7--7------7--7---7--7--7-7---|
A|-7--7-7-7-7-7-7-7-7-7-7-5--5-5-5-5---5-5-5---5--5------5--5---5--5--5-7---|
E|-5--5-5-5-5-5-5-5-5-5-5-----------------------------------------------5---|
PM   |-------------------|             ^ ^ ^                ^      ^    ^

         no one  
e|----------|
B|----------|
G|---7-7-7--|
D|---7-7-7--|
A|---5-5-5--|
E|----------|
     ^ ^ ^

 delivered the punchline               no reso-  lu     tion-is here
e|--------------------------------------------------------------------------|
B|--------------------------------------------------------------------------|
G|--7--7-7-7-7-----7-6-7--------------7--7------7--7-----7--7--7-6----------|
D|--7--7-7-7-7-----7-7-7--------------7--7------7--7-----7--7--7-7----------|
A|--5--5-5-5-5-----5-5-5--------------5--5------5--5-----5--5--5-7----------|
E|---------------------------------------------------------------5----------|
                   ^ ^ ^                           ^        ^    ^
chorus:

   i couldn't sharpen the view 
e|-------------------------------------|
B|-------------------------------------|
G|-7-----7--------------------6-7-6-4--|
D|-7-----7----7----9------------------9|
A|-5-----5----7----9-------------------|
E|------------5----7-------------------|

and it's still drawn to you waiting 
e|-------------------------------------|
B|-------------------------------------|
G|-7-----7--------------------6-7-6-4--|
D|-7-----7----7----9------------------9|
A|-5-----5----7----9-------------------|
E|------------5----7-------------------|

post-chorus:

  on the new but then this 
e|------------------------|
B|------------------------|
G|------------------------|
D|--7---------------9-----|
A|--7---------------9-----|
E|--5---------------7-----|

story has no end 
e|-----------------------|
B|-----------------------|
G|--7--------------------|
D|--7-------7---------5--|
A|--5-------7---------5--|
E|----------5---------3--|

outro:

 as we contin----ue driving
e|--------------------------------|
B|--------------------------------|
G|---------------7--7-7--7--7-6-7-|
D|-5--5-5--5-----7--7-7--7--7-7-7-|
A|-5--5-5--5-----5--5-5--5--5-5-5-|
E|-3--3-3--3----------------------|       
               
| /  slide up
| \  slide down
| h  hammer-on
| p  pull-off 
| ~  vibrato
| +  harmonic
| x  Mute note
| ^  accent
| .  staccato
=============================================================================





Comments


Popular Lagwagon tabs & chords
Angry Days Bass Tabs
Move The Car Bass Tabs
Rust 1 Bass Tabs
Sleep Bass Tabs
Sleep 1 Bass Tabs
E. Dagger Chords
Resolve Chords
Alien 8 1 Tabs
Choke 1 Tabs
Making Friends Tabs


Song lyrics



↑ Back to top | Tablatures and chords are parodies/interpretations of the original songs. You may use it for private study, scholarship, research or language learning purposes only
© 2014 AZChords.com Contact us | Privacy policy | DMCA | Add/correct tabs | Request tabs | Top 50 tabs